Shinedown

Início > Shinedown > acordes

Heroes Tablatura

Shinedown

Dificultad:PrincipiantePrincipiante

FamousA

tuner correct add songbook print version text version salvar en e-mail
acordesukuleletablaturabajobateríaarmónicaflautacavacopiano Guitar Pro
acordes

Heroes

	  
Track: -2- 
=========================================================================== 
Tablaturized by Asa Gaston 
=========================================================================== 
Tuning: Drop-Db ( Db-Ab-Db-Gb-Bb-Eb ) 
=========================================================================== 
 
INTRO 
 
Eb|---------------------------------|-------------------------------------| 
Bb|---------------------------------|-----------------------6--12-12/13\12| 
Gb|---------------------------------|---------------------7-7--12-12/13\12| 
Db|---------------------------------|-------------------------------------| 
Ab|-----7h8---7p5---3h5---7p5---3h5-|----7h8---7p5---3h5------------------| 
Db|---0-----0-----0-----0-----0-----|--0-----0-----0----------------------| 
 
PRE-VERSE 
 
Eb|-----------------------------------------------------------------------| 
Bb|-----------------------------------------------------------------------| 
Gb|-----------------------------------------------------------------------| 
Db|-----------------------------------------------------------------------| 
Ab|-----3h5---3h5---3h5---3h5---3h5---3h5---3h5---3h5---------------------| 
Db|---0-----0-----0-----0-----0-----0-----0-----0-----0--3--5--5/6\5--3~~-| 
 
Eb|-----------------------------------------------------------------------| 
Bb|------------------------------------------------------6--12-12/13\12-10| 
Gb|----------------------------------------------------7-7--12-12/13\12-10| 
Db|-----------------------------------------------------------------------| 
Ab|-----3h5---3h5---3h5---3h5---3h5---3h5---3h5---3h5---------------------| 
Db|---0-----0-----0-----0-----0-----0-----0-----0-------------------------| 
 
Eb|-----------------------------------------------------------------------| 
Bb|-----------------------------------------------------------------------| 
Gb|-----------------------------------------------------------------------| 
Db|-----------------------------------------------------------------------| 
Ab|-----3h5---3h5---3h5---3h5---3h5---3h5---3h5---3h5---------------------| 
Db|---0-----0-----0-----0-----0-----0-----0-----0-----0--3--5--5/6\5--3---| 
 
VERSE 
 
Eb|-----------------------------------------------------------------------| 
Bb|-----------------------------------------------------------------------| 
Gb|-----------------------------------------------------------------------| 
Db|---12---12\10--10---12-12-12---7-7-7-7-0-3/5--12---12\10--10---12-12-12| 
Ab|---12---12\10--10---12-12-12---7-7-7-7-0-3/5--12---12\10--10---12-12-12| 
Db|---12---12\10--10---12-12-12---7-7-7-7-0-3/5--12---12\10--10---12-12-12| 
 
Eb|-----------------------------------------------------------------------| 
Bb|-----------------------------------------------------------------------| 
Gb|-----------------------------------------------------------------------| 
Db|-----------------------------------------------------------------------| 
Ab|-------------------------3h5---3h5---3h5---3h5---3h5---3h5---3h5---3h5-| 
Db|---0--3--5--5/6\5--3---0-----0-----0-----0-----0-----0-----0-----0-----| 
 
Eb|-----------------------------------------------------------------------| 
Bb|-----------------------------------------------------------------------| 
Gb|---7--10--12--12h14p12--10---------------------------------------------| 
Db|-----------------------------------------------------------------------| 
Ab|-------------------------------3h5---3h5---3h5---3h5---3h5---3h5---3h5-| 
Db|-----------------------------0-----0-----0-----0-----0-----0-----0-----| 
 
Eb|-----------------------------------------------------------------------| 
Bb|-----------------------------------------------------------------------| 
Gb|-----------------------------------------------------------------------| 
Db|-----------------------------------------------------------------------| 
Ab|-----3h5---------------------------------------------------------------| 
Db|---0-----0--3--5--5/6\5--3---------------------------------------------| 
 
PRE-Chorus 
 
Eb|-----------------------------------------------------------------------| 
Bb|-----------------------------------------------------------------------| 
Gb|-----------------------------------------------------------------------| 
Db|----------12--10--------8--7----------12--10---15-15-15-15-15-15-14-14-| 
Ab|----------12--10--------8--7----------12--10---------------------------| 
Db|---10/12--12--10---6/8--8--7---10/12--12--10---------------------------| 
 
Eb|-----------------------------------------------------------------------| 
Bb|-----------------------------------------------------------------------| 
Gb|-----------------------------------------------------------------------| 
Db|---14--19-19-19-19-19-19-----------------------------------------------| 
Ab|-----------------------------------------------------------------------| 
Db|-----------------------------------------------------------------------| 
 
Chorus 
 
Eb|-----------------------------------------------------------------------| 
Bb|-----------------------------------------------------------------------| 
Gb|-----------------------------------------------------------------------| 
Db|---12--12--10----8--8--7----12--12--10----8--8--10----12--12--10----8--| 
Ab|---12--12--10----8--8--7----12--12--10----8--8--10----12--12--10----8--| 
Db|---12--12--10----8--8--7----12--12--10----8--8--10----12--12--10----8--| 
 
Eb|-----------------------------------------------------------------------| 
Bb|-----------------------------------------------------------------------| 
Gb|-----------------------------------------------------------------------| 
Db|---8--7----7/8----10--10/11--------------------------------------------| 
Ab|---8--7----7/8----10--10/11--------------------------------------------| 
Db|---8--7----7/8----10--10/11--------------------------------------------| 
 
PRE-VERSE 
 
Eb|-----------------------------------------------------------------------| 
Bb|-----------------------------------------------------------------------| 
Gb|-----------------------------------------------------------------------| 
Db|-----------------------------------------------------------------------| 
Ab|-----3h5---3h5---3h5---3h5---3h5---------------------------------------| 
Db|---0-----0-----0-----0-----0------0------------------------------------| 
 
VERSE II 
 
Eb|-----------------------------------------------------------------------| 
Bb|-----------------------------------------------------------------------| 
Gb|-----------------------------------------------------------------------| 
Db|---12---12\10--10---12-12-12---7-7-7-7-0-3/5--12---12\10--10---12-12-12| 
Ab|---12---12\10--10---12-12-12---7-7-7-7-0-3/5--12---12\10--10---12-12-12| 
Db|---12---12\10--10---12-12-12---7-7-7-7-0-3/5--12---12\10--10---12-12-12| 
 
Eb|-----------------------------------------------------------------------| 
Bb|-----------------------------------------------------------------------| 
Gb|-----------------------------------------------------------------------| 
Db|-----------------------------------------------------------------------| 
Ab|-------------------------3h5---3h5---3h5---3h5---3h5---3h5---3h5---3h5-| 
Db|---0--3--5--5/6\5--3---0-----0-----0-----0-----0-----0-----0-----0-----| 
 
Eb|-----------------------------------------------------------------------| 
Bb|-----------------------------------------------------------------------| 
Gb|---7--10--12--12h14p12--10---------------------------------------------| 
Db|-----------------------------------------------------------------------| 
Ab|-------------------------------3h5---3h5---3h5---3h5---3h5---3h5---3h5-| 
Db|-----------------------------0-----0-----0-----0-----0-----0-----0-----| 
 
Eb|-----------------------------------------------------------------------| 
Bb|-----------------------------------------------------------------------| 
Gb|-----------------------------------------------------------------------| 
Db|-----------------------------------------------------------------------| 
Ab|-----3h5---------------------------------------------------------------| 
Db|---0-----0--3--5--5/6\5--3---------------------------------------------| 
 
PRE-Chorus 
 
Eb|-----------------------------------------------------------------------| 
Bb|-----------------------------------------------------------------------| 
Gb|-----------------------------------------------------------------------| 
Db|----------12--10--------8--7----------12--10---15-15-15-15-15-15-14-14-| 
Ab|----------12--10--------8--7----------12--10---------------------------| 
Db|---10/12--12--10---6/8--8--7---10/12--12--10---------------------------| 
 
Eb|-----------------------------------------------------------------------| 
Bb|-----------------------------------------------------------------------| 
Gb|-----------------------------------------------------------------------| 
Db|---14--19-19-19-19-19-19-----------------------------------------------| 
Ab|-----------------------------------------------------------------------| 
Db|-----------------------------------------------------------------------| 
 
Chorus 
 
Eb|-----------------------------------------------------------------------| 
Bb|-----------------------------------------------------------------------| 
Gb|-----------------------------------------------------------------------| 
Db|---12--12--10----8--8--7----12--12--10----8--8--10----12--12--10----8--| 
Ab|---12--12--10----8--8--7----12--12--10----8--8--10----12--12--10----8--| 
Db|---12--12--10----8--8--7----12--12--10----8--8--10----12--12--10----8--| 
 
Eb|-----------------------------------------------------------------------| 
Bb|-----------------------------------------------------------------------| 
Gb|-----------------------------------------------------------------------| 
Db|---8--7----7/8----10--10/11--------------------------------------------| 
Ab|---8--7----7/8----10--10/11--------------------------------------------| 
Db|---8--7----7/8----10--10/11--------------------------------------------| 
 
SOLO ( HOLY MOTHER, JASIN TODD IS AUTOMATIC!!! ) 
 
Eb|-----------------------------------------------------------------------| 
Bb|-------------------------------------------------------------13b(full)-| 
Gb|----------12-12-12-12-12-12-12-12b(1/2)--12--10\-----------------------| 
Db|-------------------------------------------------12-10-12~~~-----------| 
Ab|-----------------------------------------------------------------------| 
Db|---0--0----------------------------------------------------------------| 
 
Eb|-------------------------------------12---11--9/-11--9~~~~-------------| 
Bb|---------------13--------------------13---12--10/12--10~~~-------------| 
Gb|---12p10----10----12--10p7-10--7h10------------------------------------| 
Db|---------12------------------------------------------------------------| 
Ab|------------------------------------------------------------10-10-10-10| 
Db|-----------------------------------------------------------------------| 
 
Eb|-----------------------------------------------------------------------| 
Bb|-------------------------------------------------13p10----13p10--------| 
Gb|-----------------------------------------------------------------------| 
Db|-------------------------------------------------------12-------12-----| 
Ab|---10-10-10b(1/2)-11-11-11-11-10/12--8\5-8-5~~-------------------------| 
Db|-----------------------------------------------------------------------| 
 
Eb|-----------------------------------------------------------15p13-------| 
Bb|---13p10----13p10----13p10----13p10----13p10----13p10------------13----| 
Gb|-----------------------------------------------------------------------| 
Db|---------12-------12-------12-------12-------12-------12---------------| 
Ab|-----------------------------------------------------------------------| 
Db|-----------------------------------------------------------------------| 
 
Eb|---15p13----15p13----15p13----15p13----15p13----15p13----15p13---------| 
Bb|---------13-------13-------13-------13-------13-------13-------13------| 
Gb|-----------------------------------------------------------------------| 
Db|-----------------------------------------------------------------------| 
Ab|-----------------------------------------------------------------------| 
Db|-----------------------------------------------------------------------| 
 
Chorus 
 
Eb|-----------------------------------------------------------------------| 
Bb|-----------------------------------------------------------------------| 
Gb|-----------------------------------------------------------------------| 
Db|---12--12--10----8--8--7----12--12--10----8--8--10----12--12--10----8--| 
Ab|---12--12--10----8--8--7----12--12--10----8--8--10----12--12--10----8--| 
Db|---12--12--10----8--8--7----12--12--10----8--8--10----12--12--10----8--| 
 
Eb|-----------------------------------------------------------------------| 
Bb|-----------------------------------------------------------------------| 
Gb|-----------------------------------------------------------------------| 
Db|---8--7----7/8----10--10/11--------------------------------------------| 
Ab|---8--7----7/8----10--10/11--------------------------------------------| 
Db|---8--7----7/8----10--10/11--------------------------------------------| 
 
OUTRO 
 
Eb|------------------------------------------------------------------------| 
Bb|------------------------------------------------------------------------| 
Gb|----------------------------------------------------7--10--12--12h14p12-| 
Db|------------------------------------------------------------------------| 
Ab|-----3h5---3h5---3h5---3h5---3h5---3h5---3h5---3h5----------------------| 
Db|---0-----0-----0-----0-----0-----0-----0-----0--------------------------| 
 
Eb|------------------------------------------------------------------------| 
Bb|------------------------------------------------------------------------| 
Gb|---10-------------------------------------------------------------------| 
Db|------------------------------------------------------------------------| 
Ab|---------3h5---3h5---3h5---3h5---3h5---3h5---3h5---3h5------------------| 
Db|-------0-----0-----0-----0-----0-----0-----0-----0-----0--3--5--5/6\5--3| 
 
NOTE: Nicely done for Shinedown, once more. It's gets pretty fast in some 
      spots, so don't play right after you wake up or anything crazy like 
      that.       Well... ...ENJOY!!! 
 
                         -Asa 
 

	  

No existe una video leccione para esta canción

request
LosAcordes
Buscar
auto avanzar rasgueos aumentar disminuir cambiar color esconder acordes gráficos
losacordes exhibir acordes losacordes youTube video losacordes ocultar tabs losacordes ir hacia arriba losacordes