All Time Low

Início > All Time L... > acordes

Heroes Tablatura

All Time Low

Dificultad:PrincipiantePrincipiante

marcnagel

tuner correct add songbook print version text version salvar en e-mail
acordesukuleletablaturabajobateríaarmónicaflautacavacopiano Guitar Pro
acordes

Heroes

Tono:  C Más
Heroes Key GG
Heroes Key G#G#
Heroes Key AA
Heroes Key A#A#(Disminuir uno tono)
Heroes Key BB(Disminuir uno semi-tono)
Heroes Key CC(tono original)
Heroes Key C#C#(Aumentar uno semi-tono)
Heroes Key DD(Aumentar uno tono)
Heroes Key D#D#
Heroes Key EE
Heroes Key FF
Heroes Key F#F#
	  
INTRO  

e|-----------------------------------------------------------------| 
B|-----------------------------------------------------------------| 
G|----------------------------------------------------5~//////////-| 
D|-9-9-10-10--9-7-7-9-9--9-7-7-9-9-10-10-9-9-7-7-9--335~//////////-| 
A|--------------------------------------------------333------------|(pick slide) 
D|--------------------------------------------------33--/////////--| 
PM. . .  .   . . . . .  . . . . . .  .  . . . . . 


VERSE

e|-------------------------------------------------------------------| 
B|-------------------------------------------------------------------| 
G|-5555555555555555--------------------5--------------5--------------| 
D|-555555555555555553-3333333333333333-5-(x24)3-------5-(x24)3-------| 
A|-333333333333333353-3333333333333333-3------3-(x24)-3------3-(x24)-| 
D|-----------------53-3333333333333333--------3--------------3-------| 
PM................   ................ 

PRE-CHORUS 


e|--------------------------------| 
B|--------------------------------| 
G|--------------------------------| 
D|-7-7-7-7-5-5-5-5-888888888888-8-| 
A|-7-7-7-7-5-5-5-5-888888888888-8-| 
D|-7-7-7-7-5-5-5-5-888888888888-8-| 
PM                ............ 

CHORUS 


e|----------------------------------------xx-xxx-xxx-xx-| 
B|----------------------------------------xx-xxx-xxx-xx-| 
G|-5555555555555555-----------------2~----xx-xxx-xxx-x--|x(Play twice) 
D|-55555555555555553333333333333333-2~2~3~xx-xxx-xxx-xx-| 
A|-33333333333333333333333333333333-0~2~3~xx-xxx-xxx-xx-| 
D|-----------------3333333333333333---2~3~xx-xxx-xxx-xx-| 


VERSE 2 


e|---------------------------------------------------------| 
A|---------------------------------------------------------| 
G|-5555555555555555------------------55-5555555555555555---| 
D|-555555555555555553-33333333333333355-555555555555555553-| 
A|-333333333333333553-33333333333333333-333333333333333353-| 
D|-----------------53-333333333333333-------------------53-| 
PM................   ...............   ................ 

e|-------------------------| 
B|-------------------------| 
G|-------------------------| 
D|-333333333333-33333333---| 
A|-333333333333-33333333---| 
D|-333333333333-33333333---| 
PM............ 

PRE-CHORUS (same as above) 

CHORUS (same as above) 

BRIDGE 

e|------------------------------------------------------| 
A|------------------------------------------------------| 
G|------------------------------------------------------| 
D|-7~---7~-2~-3~--3~-7~7-777-2223-3~///////-------------| 
A|-7~---7~-2~-3~--3~-7~7-777-2223-3---------------------|(pick slide) 
D|-7~---7~-2~-3~--3~-7~7-777-2223-3~///////-------------| 

e|---------------------------xxxx-| 
B|---------------------------xxxx-| 
G|---------------------------xxxx-| 
D|-7-77-2233-3-33-77~77-2/33-xxxx-| 
A|-7-77-2233-3-33-77~77-2/33-xxxx-| 
D|-7-77-2233-3-33-77~77-2/33-xxxx-| 

e|----------------------------------| 
A|----------------------------------| 
G|----------------------------------| 
D|-77-77-2233-33-77-7-77-2233~-5~7~-| 
A|-77-77-2233-33-77-7-77-2233~-5~7~-| 
D|-77-77-2233-33-77-7-77-2233~-5~7~-| 

INTRO PART AGAIN 

e|--------------------------------------------------------------| 
A|--------------------------------------------------------------| 
G|-555555555555555555-------------------55-5555555555555555-53~-| 
D|-55555555555555555553-333333333333333355-5555555555555555-53~-| 
A|-33333333333333333353-333333333333333333-3333333333333333-53~-| 
D|-------------------53-3333333333333333------------------------| 
PM  ................   ................   ................ 


CHORUS 


e|----------------------------------------xx-xxx-xxx-xx-| 
A|----------------------------------------xx-xxx-xxx-xx-| 
G|-5555555555555555-----------------2~----xx-xxx-xxx-xx-| 
D|-55555555555555553333333333333333-2~2~3~xx-xxx-xxx-xx-| 
A|-33333333333333333333333333333333-0~2~3~xx-xxx-xxx-xx-| 
D|-----------------3333333333333333---2~3~xx-xxx-xxx-xx-| 

e|-----------------------------------------------------| 
B|-----------------------------------------------------| 
G|-555555555555555-----------------2~------------------| 
D|-5555555555555553333333333333333-2~2~3~--------------| 
A|-3333333333333333333333333333333-0~2~3~--------------| 
D|----------------3333333333333333---2~3~--------------| 

...We're not listening....we're not listening... 

OUTRO 


e|-----------------------------------------------------| 
A|-----------------------------------------------------| 
G|-9-9-10-10--9-7-7-9-9--9-7-7-9-9-10-10-9-9-7-7-9--7/-| 
D|-----------------------------------------------------| 
A|-----------------------------------------------------| 
D|-----------------------------------------------------| 
PM..  .  .   . . . . .  . . . . . .  .  . . . . .  
	  

No existe una video leccione para esta canción

request
LosAcordes
Buscar
auto avanzar rasgueos aumentar disminuir cambiar color esconder acordes gráficos
losacordes exhibir acordes losacordes youTube video losacordes ocultar tabs losacordes ir hacia arriba losacordes