Masterplan

Início > Masterplan > acordes

Heroes Tablatura

Masterplan

Dificultad:FácilFácil

tuner correct add songbook print version text version salvar en e-mail
acordesukuleletablaturabajobateríaarmónicaflautacavacopiano Guitar Pro
acordes

Heroes

	   
Tuning:    half step down 
 
 
 
Intro: 
1|--------------------------------------------------------------|- guitar 1 
2|---------11-8----------10-8------------11-8-------------------| 
3|-10-7---------10-9~---------9--10-7---------10-9~-------------| 
4|------7-----------------------------7-------------------------| 
5|--------------------------------------------------------------| 
6|--------------------------------------------------------------| 
|                                                              | 
1|--------------------------------------------------------------|- guitar 2 
2|--------------------------------------------------------------| 
3|--------------------------------------------------------------| 
4|-7-7-7-7---------5-5-5-6-6-6-6-7-7-7-7---------5-5-5-5-5------| 
5|-5-5-5-5-8-8-8-8-3-3-3-4-4-4-4-5-5-5-5-8-8-8-8-3-3-3-3-3------| 
6|---------6-6-6-6-----------------------6-6-6-6----------------| 
|  * *   * * *   * *   * * *   * * *   * * *   * * *   * *      | 
|--------------------------------------------------------------|- bass guitar 
|--------------------------------------------------------------| 
|-5-5-5-5---------3-3-3-4-4-4-4-5-5-5-5---------3-3-3-3-3------| 
|---------6-6-6-6-----------------------6-6-6-6----------------| 
 
The End of Intro 
1|------------------------------------|- guitar 1 
2|------------------------------------| 
3|------------------------------------| 
4|-1p0-0-1p0-0-1p0-0-1p0-0-0-0h1p0----| 
5|------------------------------------| 
6|------------------------------------| 
 
Verse 1: 
 
|-----------------------------------------------------------| - both guitars 
|-----------------------------------------------------------| 
|-----------------------------------------------------------| 
|-7-7-7-7-7-7-777-7-7-7-7-7-7-777-7-7-7-7-7-7-777-7-7-7-7-7-| 
|-5-5-5-5-5-5-555-5-5-5-5-5-5-555-5-5-5-5-5-5-555-5-5-5-5-5-| 
|-----------------------------------------------------------| 
| * * * * * * *** * * * * * * *** * * * * * * *** * * * * * | 
|-----------------------------------------------------------| 
|-----------------------------------------------------------| 
|-5-5-5-5-5-5-5-5-5-5-5-5-5-5-5-5-5-5-5-5-5-5-5-5-5-5-5-5-5-| 
|-----------------------------------------------------------| 
 
Pre Chorus 1: 
 
|-----------------------------------------------------------| - both guitars 
|-----------------------------------------------------------| 
|-----------------------------------------------------------| 
|-/10-------5-5/7----5-3----5--2--2-2-2-2-2-2-2-2-2-2-2-----| 
|-/8--------3-3/5----3-1----3--0--0-0-0-0-0-0-0-0-0-0-0-----| 
|-----------------------------------------------------------| 
|                                 * * * * * * * * * * *     | 
|-----------------------------------------------------------| 
|-----------------------------------------------------------| 
|--8--------3-3/5----3-1----5--0--0-0-0-0-0-0-0-0-0-0-0-----| 
|-----------------------------------------------------------| 
 
Chorus: 
 
|-------------------------------------------------------------------------------------------------| 
|-------------------------------------------------------------------------------------------------| 
|-10-10-------10-10------15-15-------14-14--------10-10-------10-10-------15-15-------14-14-------| 
|-------10-10------10-10-------15-15-------15-15--------10-10-------10-10-------15-15-------15-15-| 
|-------------------------------------------------------------------------------------------------| 
|-------------------------------------------------------------------------------------------------| 
| *  *  *  *  *  * *  *  *  *  *  *  *  *  *  *   *  *  *  *  *  *  *  *  *  *  *  *  *  *  *  *  | 
|-------------------------------------------------------------------------------------------------| 
|-------------------------------------------------------------------------------------------------| 
|-------------------------------------------------------------------------------------------------| 
|-10---------------------5------------------------7-----------------------------------------------| 
|-8----------------------3------------------------5-----------------------7-----------------------| 
|-------------------------------------------------------------------------5-----------------------| 
|                                                                                                 | 
|-------------------------------------------------------------------------------------------------| 
|-------------------------------------------------------------------------------------------------| 
|-8-8-8-8-8-8-8-8--------3-3-3-3-3-3-3-3----------5-5-5-5-5-5-5-5---------0-0-0-0-0-0-0-0---------| 
|-------------------------------------------------------------------------------------------------| 
 
 
|-------------------------------------------------------------------------------------------| 
|-------------------------------------------------------------------------------------------| 
|-10-10-------10-10------15-------------------14-------------------10-10-------10-10--------| 
|-------10-10------10-10----15-15-15-15-15-15----15-15-15-15-15-15-------10-10-------10-10--| 
|-------------------------------------------------------------------------------------------| 
|-------------------------------------------------------------------------------------------| 
| *  *  *  *  *  * *  *  *  *  *  *  *  *  *  *  *  *  *  *  *  *  *  *  *  *  *  *  *  *   | 
|-------------------------------------------------------------------------------------------| 
|-------------------------------------------------------------------------------------------| 
|-------------------------------------------------------------------------------------------| 
|------------------------10----------------------------------------5------------------------| 
|-8----------------------8---------------------5-------------------3------------------------| 
|-6--------------------------------------------3--------------------------------------------| 
|                                                                                           | 
|-------------------------------------------------------------------------------------------| 
|-------------------------------------------------------------------------------------------| 
|-6-6-6-6-6-6-6-6--------8-8-8-8-8-8-8-8---------------------------3-3-3-3-3-3-3-3----------| 
|----------------------------------------------3-3-3-3-3-3-3-3------------------------------| 
 
Verse 2: 
 
|-----------------------------------------------------------| 
|-----------------------------------------------------------| 
|-----------------------------------------------------------| 
|-7-7-7-7-7-7-777-7-7-7-7-7-7-777-7-7-7-7-7-7-777-7-7-7-7-7-| 
|-5-5-5-5-5-5-555-5-5-5-5-5-5-555-5-5-5-5-5-5-555-5-5-5-5-5-| 
|-----------------------------------------------------------| 
| * * * * * * *** * * * * * * *** * * * * * * *** * * * * * | 
|-----------------------------------------------------------| 
|-----------------------------------------------------------| 
|-----------------------------------------------------------| 
|-7---10-5----------3-7-----10--12------------3-7-7---------| 
|-5---8--3----------1-5-----8---10------------1-5-5---------| 
|-----------------------------------------------------------| 
|                                                           | 
|-----------------------------------------------------------| 
|-----------------------------------------------------------| 
|-5-5-5-5-5-5-5-5-5-5-5-5-5-5-5-5-5-5-5-5-5-5-5-5-5-5-5-5-5-| 
|-----------------------------------------------------------| 
 
 
Solo: 
 
|--------------------------------------------------------------------| 
|--------------------------------------------------------------------| 
|--------------------------------------------------------------------| 
|-2h3-2-0---2-0-----0----------------2h3-2-0---2-0-----0-------------| 
|---------3-----3-2---3-2-0-3-2-0------------3-----3-2---3-2---------| 
|---------------------------------3--------------------------3-3/5~--| 
|                                                                    | 
|--------------------------------------------------------------------| 
|----------------------------------------------------0---------------| 
|-0----------------------------------0-------------------------------| 
|-----------------1---------3-------------------------------3--------| 
 
|------------------------------------------------------------------------| 
|------------------------------------------------------------------------| 
|-9h10-9-7----9-7------7-----------------------7-9~-------9-10-9---------| 
|----------10-----10-9---10-9-7-10-9----7-9-10----------7--------10-7~---| 
|------------------------------------10--------------10------------------| 
|------------------------------------------------------------------------| 
|                                                                        | 
|------------------------------------------------------------------------| 
|------------------------------------------------------------------------| 
|-0----------------------------------0-----------------------------------| 
|-----------------1---------3------------------------3-------------------| 
 
|-17b-17b~--18p17--------------------------------------------------------------------------| 
|-----------------20---------------------------------------------8-------------------------| 
|--------------------19p17----17-17h19p17~-------7-9h10p9-7----9---------------------------| 
|--------------------------19---------------7-10------------10-----10~--7-5----------------| 
|---------------------------------------------------------------------------7-5-----5~(0)-| 
|-------------------------------------------------------------------------------8-5--------| 
|                                                                                          | 
|------------------------------------------------------------------------------------------| 
|----------------------------------0-------------------------------------------------------| 
|-0----------------------0------------------0----------------------0-----------------------| 
|-------1---------3---------------------3------------1-----3---------------3---------------| 
 
|--12p0-0-0-0-10p0-0-7p0-5(p0)--0---0-2-3-2-0-3--| 
|-------------------------/------3--------------| 
|------------------------/----------------------| 
|-----------------------/-----------------------| 
|----------------------/------------------------| 
|---------play-7-times---------------------------| 
|                                                | 
|------------------------------------------------| 
|------------------------------------------------| 
|--7-----5-------------5---7---------------------| 
|-----------8---7---5----------------------------| 
 
 
 
|--24~-22-24~-22-22h24b--22~--22-20-19-20~--17-15p14~--| 
|------------------------------------------------------| 
|------------------------------------------------------| 
|------------------------------------------------------| 
|------------------------------------------------------| 
|------------------------------------------------------| 
|                                                      | 
|--12p0-0-0-0-10p0-0-7p0-5(p0)-------------------------| 
|-------------------------/---------------------------| 
|------------------------/----------------------------| 
|-----------------------/-----------------------------| 
|----------------------/------------------------------| 
|---------play-6-times---------------------------------| 
|                                                      | 
|------------------------------------------------------| 
|------------------------------------------------------| 
|--7------5-------------5------------------------------| 
|------------8---7---5---------------------------------| 
 
Pre Chorus 2: 
 
|-----------------------------------------------------------| - both guitars 
|-----------------------------------------------------------| 
|-----------------------------------------------------------| 
|-----------5-5/7----5-3----5--2--2-2-2-2-2-2-2-2-2-2-2-----| 
|-8-8-8-8---3-3/5----3-1----3--0--0-0-0-0-0-0-0-0-0-0-0-----| 
|-6-6-6-6---------------------------------------------------| 
|                                 * * * * * * * * * * *     | 
|-----------------------------------------------------------| 
|-----------------------------------------------------------| 
|-----------3-3/5----3-1----5--0--0-0-0-0-0-0-0-0-0-0-0-----| 
|-6-6-6-6---------------------------------------------------| 
 
Order: 
 1.Intro 2x then The End Of Intro 
 2.Verse 1 
 3.Pre Chorus 1 
 4.Chorus 
 5.Intro 1x 
 6.Verse 2 
 7.Pre Chorus 1 
 8.Chorus 
 9.Intro 1x 
10.Solo 
11.Pre Chorus 2 
12.Chorus 
13.Intro 2x the The End Of Intro 
 
Tab key: 
b  - bend 
*  - palm muting 
h  - hammer on 
p  - pull of 
/  - slide up 
  - slide down 
// - repeating 
 
 
_______________________________________________________ 
Contribuição: ([email protected]) 

	  

No existe una video leccione para esta canción

request
LosAcordes
Buscar
auto avanzar rasgueos aumentar disminuir cambiar color esconder acordes gráficos
losacordes exhibir acordes losacordes youTube video losacordes ocultar tabs losacordes ir hacia arriba losacordes