Kiss

Início > Kiss > acordes

Sure know Something Tablatura

Kiss

Dificultad:ExpertoExperto

tuner correct add songbook print version text version salvar en e-mail
acordesukuleletablaturabaixobateríaarmónicaflautacavacopiano Guitar Pro
acordes

Sure know Something

Áño: 1979 - Álbum: Gold

	  E Tuning 
 
Key: 
/    = slide up 
    = slide down 
b    = bend (whole step) 
b^   = bend (1/2 step) 
b^^  = bend (1 1/2 steps) 
pb   = pre-bend 
r    = release-bend 
r^   = release-bend half-step 
h^   = hammer-on 
p^   = pull-off 
~    = Vibrato 
*    = Natural Harmonic 
#(#) = Trill 
**   = Artificial Harmonic 
x    = Muted String (Palm Muting) 
X    = Muted String (Fretboard Muting) 
 
 
Rhythm Fig. 1 
 
E|----------------------------------------------------| 
B|--8-------8-----------------------------------------| 
G|----7-------7---------------------------------------| 
D|------9-------9-------------------------------------| 
A|----------------------------------------------------| 
E|----------------------------------------------------| 
 
 
Rhythm Fig. 2 
 
E|---------------------5--5---5---5--5--7--7--7--7--7-| 
B|--8---8---8---8---8--5--5---5---5--5--7--7--7--7--7-| 
G|--7---7---7---7---7--5--5---5---5--5--7--7--7--7--7-| 
D|--9---9---9---9---9--7--7---7---7--7--9--9--9--9--9-| 
A|----------------------------------------------------| 
E|----------------------------------------------------| 
 
                   end. 1           end. 2 
E|-5--5--5--5-----|----------------|------------------| 
B|-5--5--5--5-----|--8-------8-----|------------------| 
G|-5--5--5--5-----|-----7------7---|-9----------------| 
D|-7--7--7--7-----|-------9------9-|-9----------------| 
A|----------------|----------------|-7----------------| 
E|----------------|----------------|-0----------------| 
                                     <15x w/ Dist.> 
 
 
 
Rhythm Fig. 2a 
 
E|----------------------------------------------------| 
B|----8--------------5------------7-----------5-------| 
G|-------7-------------5------------7------------5----| 
D|----------9-------------7------------9-----------7--| 
A|-----------------0------------------------0---------| 
E|--0---------------------------7---------------------| 
    <----2x-->     <---2x--> 
 
E|----------------------------------------------------| 
B|----------------------------------------------------| 
G|--9-------------------------------------------------| 
D|--9-------------------------------------------------| 
A|--7-------------------------------------------------| 
E|--0-------------------------------------------------| 
    <15x w/ Distortion> 
 
 
Rhythm Fig. 3 
 
E|----------------------------------------------------| 
B|----------------------------------------------------| 
G|-5--5---7--7---7-7-7-7-7-7-7-7-7-7-7------5---5-----| 
D|-5--5---7--7---7-7-7-7-7-7-7-7-7-7-7----5----5------| 
A|-3--3---5--5---5-5-5-5-5-5-5-5-5-5-5--3----2----0---| 
E|---------------------------------------------------3| 
 
                    end. 1 
E|-----------------|----------------------------------| 
B|-----------------|----------------------------------| 
G|------5----5-----|-5/7------------------------------| 
D|----5----5-------|-5/7------------------------------| 
A|--3----2-----0---|-3/5------------------------------| 
E|---------------3-|----------------------------------| 
 
 
Rhythm Fig. 3a 
 
E|--------2--2---2-2-2-2-2-2-2-2-2-2-2----3------3----| 
B|--------3--3---3-3-3-3-3-3-3-3-3-3-3------3------3--| 
G|-5--5---2--2---2-2-2-2-2-2-2-2-2-2-2---0------0-----| 
D|-5--5---0--0---0-0-0-0-0-0-0-0-0-0-0----------------| 
A|-3--3---------------------------------3-----2-------| 
E|----------------------------------------------------| 
 
                         end. 1 
E|----------3-------3---|-3--2------------------------| 
B|------------3-------3-|-3--3------------------------| 
G|---------0-------0----|-0--2------------------------| 
D|----------------------|-2--0------------------------| 
A|--0-----3------2------|-3---------------------------| 
E|-----3----------------|-----------------------------| 
 
 
Rhythm Fig. 3b 
 
E|----------------------------------------------------| 
B|----------------------------------------------------| 
G|--------7--7---7-7-7-7-7-7-7-7-7-7-7------5---5-----| 
D|--------7--7---7-7-7-7-7-7-7-7-7-7-7----5----5------| 
A|--------5--5---5-5-5-5-5-5-5-5-5-5-5--3----2----0---| 
E|---------------------------------------------------3| 
 
                    end. 1 
E|-----------------|----------------------------------| 
B|-----------------|----------------------------------| 
G|------5----5-----|-5/7------------------------------| 
D|----5----5-------|-5/7------------------------------| 
A|--3----2-----0---|-3/5------------------------------| 
E|---------------3-|----------------------------------| 
 
 
Rhythm Fig. 3c 
 
E|--------2--2---2-2-2-2-2-2-2-2-2-2-2----3------3----| 
B|--------3--3---3-3-3-3-3-3-3-3-3-3-3------3------3--| 
G|--------2--2---2-2-2-2-2-2-2-2-2-2-2---0------0-----| 
D|--------0--0---0-0-0-0-0-0-0-0-0-0-0----------------| 
A|--------------------------------------3-----2-------| 
E|----------------------------------------------------| 
 
                         end. 1 
E|----------3-------3---|-3--2------------------------| 
B|------------3-------3-|-3--3------------------------| 
G|---------0-------0----|-0--2------------------------| 
D|----------------------|-2--0------------------------| 
A|--0-----3------2------|-3---------------------------| 
E|-----3----------------|-----------------------------| 
 
 
Rhythm Fig. 4 
 
E|---------------------5--5---5---5--5--7--7--7--7--7-| 
B|--8---8---8---8---8--5--5---5---5--5--7--7--7--7--7-| 
G|--7---7---7---7---7--5--5---5---5--5--7--7--7--7--7-| 
D|--9---9---9---9---9--7--7---7---7--7--9--9--9--9--9-| 
A|----------------------------------------------------| 
E|----------------------------------------------------| 
 
                    
E|-5--5--5--5-----------------------------------------| 
B|-5--5--5--5---------8--------8----------------------| 
G|-5--5--5--5-----------7--------7--------------------| 
D|-7--7--7--7-------------9--------9------------------| 
A|----------------------------------------------------| 
E|------------------0--------0------------------------| 
                    <-------2x-----> 
 
 
Rhythm Fig. 5 
 
E|----------------------------------------------------| 
B|----8--------------5------------7-----------5-------| 
G|-------7-------------5------------7------------5----| 
D|----------9-------------7------------9-----------7--| 
A|-----------------0------------------------0---------| 
E|--0---------------------------7---------------------| 
    <----2x-->     <---2x--> 
 
E|----------------------------------------------------| 
B|----8-----------------------------------------------| 
G|-------7--------------------------------------------| 
D|----------9-----------------------------------------| 
A|----------------------------------------------------| 
E|--0-------------------------------------------------| 
    <---2x---> 
 
 
Riff. 1 
 
E|---12**---------------------------------------------| 
B|---12**---------------------------------------------| 
G|----------------------------------------------------| 
D|----------------------------------------------------| 
A|----------------------------------------------------| 
E|----------------------------------------------------| 
 
 
Riff.2 
 
E|----------------------------------------------------| 
B|----------------------------------------------------| 
G|----------------------------------------------------| 
D|----------------------------------------------------| 
A|---/------------------------------------------------| 
E|---/------------------------------------------------| 
      
 
 
Solo 
 
E|----------------------------------------------------| 
B|----------------------------------------------------| 
G|------------------7--9p^7--9p^7--9b~-9b-r9p^7h^9~---| 
D|--7h^9~------7h^9-----------------------------------| 
A|--------7h^9----------------------------------------| 
E|----------------------------------------------------| 
 
 
E|-----------12-----12----12----------12h^15p^12------| 
B|-8/10-10b------10----10----8~---/15------------15---| 
G|----------------------------------------------------| 
D|----------------------------------------------------| 
A|----------------------------------------------------| 
E|----------------------------------------------------| 
 
 
E|-12--12------------------------17b------------------| 
B|---------15--15b~--17b-r17p^15----------------------| 
G|----------------------------------------------------| 
D|----------------------------------------------------| 
A|----------------------------------------------------| 
E|----------------------------------------------------| 
 
 
SURE KNOW SOMETHING - Paul Stanley, Vini Poncia 
{Riff.1 w/ Bass} 
{Rhythm Fig. 1} 
 
{Rhythm Fig. 2 w/ end.1} 
I've been up and down, I've been all around 
I was mystified, almost terrified 
But late at night I still hear you call my name 
 
{Rhythm Fig. 2 w/ end.2} w/ {Riff. 2} 
I've been on my own, I've been all alone 
I was hypnotized, I felt paralyzed 
But late at night I still want you just the same 
 
{Rhythm Fig. 3} w/ {Rhythm Fig. 3a} 
I've been a gambler, but I'm nobody's fool 
And I sure know something, sure know something 
{Rhythm Fig. 3b} w/ {Rhythm Fig. 3c} 
You showed me things they never taught me in school 
And I sure know something, sure know something 
{Rhythm Fig. 3b w/end. 1} w/ {Rhythm Fig. 3c w/end. 1} 
No one can make me feel the way that you do 
And I sure know something, aha 
 
{Rhythm Fig. 2 w/ end.1} 
I was seventeen, you were just a dream 
I was mesmerized, I felt scared inside 
You broke my heart and I still can feel the pain 
 
{Rhythm Fig. 2 w/ end.2} w/ {Riff. 2} 
I've been counted out, I've had fear and doubt 
I've been starry eyed, never satisfied 
'Cause late at night I still need you just the same 
Just the same 
 
 
{Rhythm Fig. 3} w/ {Rhythm Fig. 3a} 
I've been a gambler, but I'm nobody's fool 
And I sure know something, sure know something 
{Rhythm Fig. 3b} w/ {Rhythm Fig. 3c} 
You showed me things they never taught me in school 
And I sure know something, sure know something 
{Rhythm Fig. 3b w/end. 1} w/ {Rhythm Fig. 3c w/end. 1} 
No one can make me feel the way that you do 
And I sure know something, aha 
 
{Solo} w/ {Rhythm Fig. 4} 
 
{Rhythm Fig. 4} 
 
{Rhythm Fig. 5} w/ {Riff. 2} 
I've been counted out, I've had fear and doubt 
I've been starry eyed, never satisfied 
'Cause late at night I still need you just the same 
Just the same, yeah 
 
{Rhythm Fig. 3} w/ {Rhythm Fig. 3a} 
I've been a gambler, but I'm nobody's fool 
And I sure know something, sure know something 
{Rhythm Fig. 3b} w/ {Rhythm Fig. 3c} 
You showed me things they never taught me in school 
And I sure know something, sure know something 
{Rhythm Fig. 3b} w/ {Rhythm Fig. 3c} 
No one can make me feel the way that you do 
And I sure know something, sure know something 
{Rhythm Fig. 3b} w/ {Rhythm Fig. 3c} 
No one can tell me till I hear it from you 
And I sure know something, sure know something 
{Rhythm Fig. 3b} w/ {Rhythm Fig. 3c} 
I've been a gambler, but I'm nobody's fool 
Sure know something, sure know something 
{Rhythm Fig. 3b} w/ {Rhythm Fig. 3c} 
You showed me things they never taught me in school 
Sure know something, sure know something 
{Rhythm Fig. 3b} w/ {Rhythm Fig. 3c} 
No one can make me feel the way that you do 
	  

No existe una video leccione para esta canción

request
LosAcordes
Buscar
auto avanzar rasgueos aumentar disminuir cambiar color esconder acordes gráficos
losacordes exhibir acordes losacordes youTube video losacordes ocultar tabs losacordes ir hacia arriba losacordes