Kiss

Início > Kiss > acordes

Sure know Something Tablatura Bajo

Kiss

Dificultad:ExpertoExperto

ironmejiab

tuner correct add songbook print version text version salvar en e-mail
acordesukuleletablaturabaixobateríaarmónicaflautacavacopiano Guitar Pro
acordes

Sure know Something

Áño: 1979 - Álbum: Gold

Tono:  Em
	  INTRO 
 
G|-------------------------------------------------| 
D|-------------------------------------------------| 
A|-7/5-7--5----5--7--7--5--------------------------| 
E|-----------7-------------7--3--5--5--3--0--3--5--| 
 
 
G|-----------------------------------------------------| 
D|-----------------------------7--5--------------------| 
A|---------------5--7--5------------7--5--7------------| 
E|-5--3--0--3--7----------7--5---------------3--5--3/7-| 
 
VERSO 1 
 
 
G|-------------------------------------------------| 
D|-------------------------------------------------| 
A|--7--5----5---7--7--5----------------------------| 
E|------------7-------------7--3--5--5--3--0--3--5-| 
 
 
G|-----------------------------------------------------| 
D|-----------------------------7--5--------------------| 
A|---------------5--7--5------------7--5--7------------| 
E|-5--3--0--3--7----------7--5---------------3--5--3/7-| 
 
NOTA:Se toca 2 veces lo que es el verso 
pero en la 2º vez no se hace el slide 3/7 
 
CORO                     __________________x2_______________________________  
                         |                                                  | 
G|-----------------------||--------------------------------------------------| 
D|-----------------------||--------------------------------------------------| 
A|7-7-7-7-7-7-7-3-3H5--5-||-5--3--2--0--2--5--3--2--0--2--3--2--0---2--0-----| 
E|-----------------------||---------------------------------------3------3--0| 
 
G|------------------------------------------------| 
D|------------------------------------------------| 
A|5--3--2--0--2--5--------0--2--3--2--0-----3--5--| 
E|------------------0--2-----------------3--------| 
 
VERSO 2 
 
G|-------------------------------------------------| 
D|-------------------------------------------------| 
A|--7--5----5--7--7--5-----------------------------| 
E|-----------7-------------7--3--5--5--3--0--3--5--| 
 
 
G|-----------------------------------------------------| 
D|-----------------------------7--5--------------------| 
A|---------------5--7--5------------7--5--7------------| 
E|-5--3--0--3--7----------7--5---------------3--5--3/7-| 
 
 
CORO                     __________________x2_______________________________  
                         |                                                  | 
G|-----------------------||--------------------------------------------------| 
D|-----------------------||--------------------------------------------------| 
A|7-7-7-7-7-7-7-3-3H5--5-||-5--3--2--0--2--5--3--2--0--2--3--2--0--2--0------| 
E|-----------------------||---------------------------------------3-----3--0-| 
 
G|------------------------------------------------| 
D|------------------------------------------------| 
A|5--3--2--0--2--5--------0--2--3--2--0-----3--5--| 
E|------------------0--2-----------------3--------| 
 
SOLO DE GUITARRA 
 
G|-------------------------------------------------| 
D|-------------------------------------------------| 
A|--7--5----5---7--7--5----------------------------| 
E|------------7-------------7--3--5--5--3--0--3--5-| 
 
 
G|-----------------------------------------------------| 
D|-----------------------------7--5--------------------| 
A|---------------5--7--5------------7--5--7------------| 
E|-5--3--0--3--7----------7--5---------------3--5--3/7-| 
 
DESPUES 
 
G||------------------------------------------------------------| 
D||------------------------------------------------------------| 
A||------------------------------0-0-0-0-0-0-0-0-0-0-0-0-0-0-0-| 
E||0-0-0-0-0-0-0-0-0-0-0-0-0-0-0-------------------------------| 
 
 
G|-----------------------------||--|---------------|-----------------| 
D|-----------------------------||--|---------------|-----------------| 
A|----------------0-0-0-0-0-0-0||X2|---------------|7-7-7-7-7-7-7----| 
E|7-7-7-7-7-7-7-7--------------||--|0-0-0-0-0-0-0-0|-----------------| 
 
CORO 
|-----------| 
|-----------| 
|3-3-H5--5--|ETC (MUERE CON EL CORO) 
|-----------| 

	  

No existe una video leccione para esta canción

request
LosAcordes
Buscar
auto avanzar rasgueos aumentar disminuir cambiar color esconder acordes gráficos
losacordes exhibir acordes losacordes youTube video losacordes ocultar tabs losacordes ir hacia arriba losacordes