Eddie Vedder

Início > Eddie Vedd... > acordes

Without You Tablatura

Eddie Vedder

Dificultad:FácilFácil

bombaXXX

tuner correct add songbook print version text version salvar en e-mail
acordesukuleletablaturabajobateríaarmónicaflautacavacopiano Guitar Pro
acordes

Without You

	  

Intro: 

e|--3-3-3-3-3-3-3-3-3-3-3-3-3-3-3-3--7-7-7-7-7-7-7-7-7-7-7-7-7-7-7-7--| 
B|--5-5-5-5-5-5-5-5-5-5-5-5-5-5-5-5--5-5-5-5-5-5-5-5-5-5-5-5-5-5-5-5--| 
G|--0-0-0-0-0-0-0-0-0-0-0-0-0-0-0-0--7-7-7-7-7-7-7-7-7-7-7-7-7-7-7-7--| 
D|--5-5-5-5-5-5-5-5-5-5-5-5-5-5-5-5--0-0-0-0-0-0-0-0-0-0-0-0-0-0-0-0--| x2 
A|--------------------------------------------------------------------| 
E|--------------------------------------------------------------------| 
                                    (Verse) 
e|--3-3-3-3-3-3-3-3-3-3-3-3-3-3-3-3--3-3-3-3-3-3-3-3-3-3-3-3-3-3-3-3--| 
B|--5-5-5-5-5-5-5-5-5-5-5-5-5-5-5-5--5-5-5-3-3-3-3-3-5-5-5-3-3-3-3-3--| 
G|--0-0-0-0-0-0-0-0-0-0-0-0-0-0-0-0--0-0-0-0-0-0-0-0-0-0-0-0-0-0-0-0--| 
D|--5-5-5-5-5-5-5-5-5-5-5-5-5-5-5-5-----------------------------------|  
A|--------------------------------------------------------------------| 
E|--------------------------------------------------------------------| 
                                     I'll- Grow when You-  Grow- 
e|--3-3-3-3-3-3-3-3-3-3-3-3-3-3-3-3--3-3-3-3-3-3-3-3-3-3-3-3-3-3-3-3--| 
B|--7-7-7-5-5-7-5-3-5-5-5-3-3-3-3-3--5-5-5-3-3-3-3-3-5-5-5-3-3-3-3-3--| 
G|--0-0-0-0-0-0-0-0-0-0-0-0-0-0-0-0--0-0-0-0-0-0-0-0-0-0-0-0-0-0-0-0--| 
D|--------------------------------------------------------------------| 
A|--------------------------------------------------------------------| 
E|--------------------------------------------------------------------| 
    Let me loosen up the blindfold   I'll- Fly when  You-  Cry 
e|--3-3-3-3-3-3-3-3-3-3-3-3-3-3-3-3--3-3-3-3-3-3-3-3-3-3-3-3-3-3-3-3--| 
B|--7-7-7-5-5-7-5-3-5-5-5-3-3-3-3-3--5-5-5-3-3-3-3-3-5-5-5-3-3-3-3-3--| 
G|--0-0-0-0-0-0-0-0-0-0-0-0-0-0-0-0--0-0-0-0-0-0-0-0-0-0-0-0-0-0-0-0--| 
D|--------------------------------------------------------------------| 
A|--------------------------------------------------------------------| 
E|--------------------------------------------------------------------| 
    Lift us out of this landslide..           Wherever you go, whenever we 
e|--3-3-3-3-3-3-3-3-3-3-3-3-3-3-3-3-3-3-3-3-3--3-3-3-3-3-3-3-3-3-3-3--| 
B|--7-7-7-5-5-7-5-3-5-5-5-3-3-3-3-3-3-3-3-3-3--0-0-0-1-1-1-1-1-3-3-3--| 
G|--0-0-0-0-0-0-0-0-0-0-0-0-0-0-0-0-0-0-0-0-0--0-0-0-0-0-0-0-0-0-0-0--| 
D|--------------------------------------------------------------------| 
A|--------------------------------------------------------------------| 
E|--------------------------------------------------------------------| 
    Part-                  (chorus) I'll keep on healing all the scars 
e|--3-3-3-3-3-3-5-5-5-5-5-3-3-3--7-7-7-7-7-7-7-7-7-7-7-7-7-7-7-7--5-5-| 
B|--4-4-4-4-4-4-4-4-4-4-4-4-4-4--3-3-3-3-3-3-3-3-3-3-3-3-3-3-3-3--2-2-| 
G|--0-0-0-0-0-0-0-0-0-0-0-0-0-0--0-0-0-0-0-0-0-0-0-0-0-0-0-0-0-0--0-0-| 
D|--------------------------------------------------------------------| 
A|--------------------------------------------------------------------| 
E|--------------------------------------------------------------------| 
That we'e collected from the start I'd rather this than live without you 
e|-5-5-5-5-5-5-5-5-5-5-5-5-5-5--3-3-3-3-3-3-3-3-3-3-3-3-3-3-3-3-3-3-3-| 
B|-2-2-2-2-2-2-2-2-2-2-2-2-2-2--1-1-1-1-1-1-1-1-1-1-1-1-1-1-1-1-1-0-0-| 
G|-0-0-0-0-0-0-0-0-0-0-0-0-0-0--0-0-0-0-0-0-0-0-0-0-0-0-0-0-0-0-0-0-0-| 
D|--------------------------------------------------------------------| 
A|--------------------------------------------------------------------| 
E|--------------------------------------------------------------------| 
                                For every wish upon a star       That 
e|-3-3-3-3-3-3-3-3-3-3-3-3-3-3--7-7-7-7-7-7-7-7-7-7-7-7-7-7-7-7--5-5--| 
B|-0-0-0-0-0-0-0-0-0-0-0-0-1-2--3-3-3-3-3-3-3-3-3-3-3-3-3-3-3-3--2-2--| 
G|-0-0-0-0-0-0-0-0-0-0-0-0-0-0--0-0-0-0-0-0-0-0-0-0-0-0-0-0-0-0--0-0--| 
D|--------------------------------------------------------------------| 
A|--------------------------------------------------------------------| 
E|--------------------------------------------------------------------| 
  goes unanswered in the dark  There is a dream i've dreamt about you 
e|-5-5-5-5-5-5-5-5-5-5-5-5-5-5--3-3-3-3-3-3-3-3-3-3-3-3-3-3-3-3-3-3-3-| 
B|-2-2-2-2-2-2-2-2-2-2-2-2-2-2--1-1-1-1-1-1-1-1-1-1-1-1-1-1-1-1-1-0-0-| 
G|-0-0-0-0-0-0-0-0-0-0-0-0-0-0--0-0-0-0-0-0-0-0-0-0-0-0-0-0-0-0-0-0-0-| 
D|--------------------------------------------------------------------| 
A|--------------------------------------------------------------------| 
E|--------------------------------------------------------------------| 
                               (Bridge)   From afar- I lie awake 
e|-3-3-3-3-3-3-3-3-3-3-3-3-3-3-(0)-1-1-1-1-1-1-1-1-0-0-0-0-0-0-0-0-7-7| 
B|-0-0-0-0-0-0-0-0-0-0-0-0-0-0-(0)-3-3-3-3-3-3-3-3-1-1-1-1-1-1-1-1-3-3| 
G|-0-0-0-0-0-0-0-0-0-0-0-0-0-0-(0)-0-0-0-0-0-0-0-0-0-0-0-0-0-0-0-0-0-0| 
D|--------------------------------------------------------------------| 
A|--------------------------------------------------------------------| 
E|--------------------------------------------------------------------| 
                                         Close my eyes to find I Wouldn't 
e|-7-7-7-7-7-7-7-7-7-7-7-7-7-7-(0)-1-1-1-1-1-1-1-1-0-0-0-0-0-0-0-0-3-3| 
B|-3-3-3-3-3-3-3-3-3-3-3-3-3-3-(0)-3-3-3-3-3-3-3-3-1-1-1-1-1-1-1-1-1-1| 
G|-0-0-0-0-0-0-0-0-0-0-0-0-0-0-(0)-0-0-0-0-0-0-0-0-0-0-0-0-0-0-0-0-2-2| 
D|--------------------------------------------------------------------| 
A|--------------------------------------------------------------------| 
E|--------------------------------------------------------------------| 
   be the same..(verse)I'll- Shine when you shine 
e|-3-3-3-3-3-0-2------3-3-3-3-3-3-3-3-3-3-3-3-3-3-3-3--| 
B|-1-1-1-1-1-1-1------5-5-5-3-3-3-3-3-5-5-5-3-3-3-3-3--| 
G|-2-2-2-2-2-2-2------0-0-0-0-0-0-0-0-0-0-0-0-0-0-0-0--| 
D|-----------------------------------------------------| 
A|-----------------------------------------------------| 
E|-----------------------------------------------------| 
    Painted pictures on my mind      Sun sets on this ocean 
e|--3-3-3-3-3-3-3-3-3-3-3-3-3-3-3-3--3-3-3-3-3-3-3-3-3-3-3-3-3-3-3-3--| 
B|--7-7-7-5-5-7-5-3-5-5-5-3-3-3-3-3--5-5-5-3-3-3-3-3-5-5-5-3-3-3-3-3--| 
G|--0-0-0-0-0-0-0-0-0-0-0-0-0-0-0-0--0-0-0-0-0-0-0-0-0-0-0-0-0-0-0-0--| 
D|--------------------------------------------------------------------| 
A|--------------------------------------------------------------------| 
E|--------------------------------------------------------------------| 
    Never once on my devotion                  However You are, Or far    
e|--3-3-3-3-3-3-3-3-3-3-3-3-3-3-3-3-3-3-3-3-3--3-3-3-3-3-3-3-3-3-3-3--| 
B|--7-7-7-5-5-7-5-3-5-5-5-3-3-3-3-3-3-3-3-3-3--0-0-0-1-1-1-1-1-3-3-3--| 
G|--0-0-0-0-0-0-0-0-0-0-0-0-0-0-0-0-0-0-0-0-0--0-0-0-0-0-0-0-0-0-0-0--| 
D|--------------------------------------------------------------------| 
A|--------------------------------------------------------------------| 
E|--------------------------------------------------------------------| 
 that you're far                (chorus) I'll keep on healing all the scars 
e|--3-3-3-3-3-3-5-5-5-5-5-3-3-3--7-7-7-7-7-7-7-7-7-7-7-7-7-7-7-7--5-5-| 
B|--4-4-4-4-4-4-4-4-4-4-4-4-4-4--3-3-3-3-3-3-3-3-3-3-3-3-3-3-3-3--2-2-| 
G|--0-0-0-0-0-0-0-0-0-0-0-0-0-0--0-0-0-0-0-0-0-0-0-0-0-0-0-0-0-0--0-0-| 
D|--------------------------------------------------------------------| 
A|--------------------------------------------------------------------| 
E|--------------------------------------------------------------------| 
That we'e collected from the start I'd rather this than live without you 
e|-5-5-5-5-5-5-5-5-5-5-5-5-5-5--3-3-3-3-3-3-3-3-3-3-3-3-3-3-3-3-3-3-3-| 
B|-2-2-2-2-2-2-2-2-2-2-2-2-2-2--1-1-1-1-1-1-1-1-1-1-1-1-1-1-1-1-1-0-0-| 
G|-0-0-0-0-0-0-0-0-0-0-0-0-0-0--0-0-0-0-0-0-0-0-0-0-0-0-0-0-0-0-0-0-0-| 
D|--------------------------------------------------------------------| 
A|--------------------------------------------------------------------| 
E|--------------------------------------------------------------------| 
                                For every wish upon a star       That 
e|-3-3-3-3-3-3-3-3-3-3-3-3-3-3--7-7-7-7-7-7-7-7-7-7-7-7-7-7-7-7--5-5--| 
B|-0-0-0-0-0-0-0-0-0-0-0-0-1-2--3-3-3-3-3-3-3-3-3-3-3-3-3-3-3-3--2-2--| 
G|-0-0-0-0-0-0-0-0-0-0-0-0-0-0--0-0-0-0-0-0-0-0-0-0-0-0-0-0-0-0--0-0--| 
D|--------------------------------------------------------------------| 
A|--------------------------------------------------------------------| 
E|--------------------------------------------------------------------| 
  goes unanswered in the dark  There is a dream i've dreamt about you 
e|-5-5-5-5-5-5-5-5-5-5-5-5-5-5--3-3-3-3-3-3-3-3-3-3-3-3-3-3-3-3-3-3-3-| 
B|-2-2-2-2-2-2-2-2-2-2-2-2-2-2--1-1-1-1-1-1-1-1-1-1-1-1-1-1-1-1-1-0-0-| 
G|-0-0-0-0-0-0-0-0-0-0-0-0-0-0--0-0-0-0-0-0-0-0-0-0-0-0-0-0-0-0-0-0-0-| 
D|--------------------------------------------------------------------| 
A|--------------------------------------------------------------------| 
E|--------------------------------------------------------------------| 

                               (outro)   From afar- I lie awake 
e|-3-3-3-3-3-3-3-3-3-3-3-3-3-3-(0)-1-1-1-1-1-1-1-1-0-0-0-0-0-0-0-0-7-7| 
B|-0-0-0-0-0-0-0-0-0-0-0-0-0-0-(0)-3-3-3-3-3-3-3-3-1-1-1-1-1-1-1-1-3-3| 
G|-0-0-0-0-0-0-0-0-0-0-0-0-0-0-(0)-0-0-0-0-0-0-0-0-0-0-0-0-0-0-0-0-0-0| 
D|--------------------------------------------------------------------| 
A|--------------------------------------------------------------------| 
E|--------------------------------------------------------------------| 
                                         Close my eyes to find I Wouldn't 
e|-7-7-7-7-7-7-7-7-7-7-7-7-7-7-(0)-1-1-1-1-1-1-1-1-0-0-0-0-0-0-0-0-3-3| 
B|-3-3-3-3-3-3-3-3-3-3-3-3-3-3-(0)-3-3-3-3-3-3-3-3-1-1-1-1-1-1-1-1-1-1| 
G|-0-0-0-0-0-0-0-0-0-0-0-0-0-0-(0)-0-0-0-0-0-0-0-0-0-0-0-0-0-0-0-0-2-2| 
D|--------------------------------------------------------------------| 
A|--------------------------------------------------------------------| 
E|--------------------------------------------------------------------| 

be the same..         Without you.... 
e|-3-3-3-3-3-0-2------7-7-7-7-7-7-7-7-7-7-7-7-7-7-7-7--5-5-5-5-5-5-5-5| 
B|-1-1-1-1-1-1-1------3-3-3-3-3-3-3-3-3-3-3-3-3-3-3-3--2-2-2-2-2-2-2-2| 
G|-2-2-2-2-2-2-2------0-0-0-0-0-0-0-0-0-0-0-0-0-0-0-0--0-0-0-0-0-0-0-0| 
D|--------------------------------------------------------------------| 
A|--------------------------------------------------------------------| 
E|--------------------------------------------------------------------| 

Without- You...                     END 
e|-5-5-5-5-5-5-5-5--3-3-3-3-3-3-3-3-3--| 
B|-2-2-2-2-2-2-2-2--1-1-1-1-1-1-1-1-0--| 
G|-0-0-0-0-0-0-0-0--0-0-0-0-0-0-0-0-0--| 
D|-------------------------------------| 
A|-------------------------------------| 
E|-------------------------------------|  
	  

No existe una video leccione para esta canción

request
LosAcordes
Buscar
auto avanzar rasgueos aumentar disminuir cambiar color esconder acordes gráficos
losacordes exhibir acordes losacordes youTube video losacordes ocultar tabs losacordes ir hacia arriba losacordes