Glee Cast

Início > Glee Cast > acordes

Without You Tablatura

Glee Cast

Dificultad:ExpertoExperto

edsooliveira

tuner correct add songbook print version text version salvar en e-mail
acordesukuleletablaturabajobateríaarmónicaflautacavacopiano Guitar Pro
acordes

Without You

Tono:  G Más
Without You Key DD
Without You Key D#D#
Without You Key EE
Without You Key FF(Disminuir uno tono)
Without You Key F#F#(Disminuir uno semi-tono)
Without You Key GG(tono original)
Without You Key G#G#(Aumentar uno semi-tono)
Without You Key AA(Aumentar uno tono)
Without You Key A#A#
Without You Key BB
Without You Key CC
Without You Key C#C#
	                  G                                C  
e|--------------------------------|--------------------------------|  
B|--0-0-------------0-0-----3-3---|--0-0-------------0-0-----5-5---|  
G|-------0-2-2--0--------0------0-|-------0-2-2--0--------0------0-|  
D|--------------------------------|--------------------------------|  
A|--------------------------------|--3-3----3-3------3-3-----3-3---|  
E|--3-3----3-3------3-3-----3-3---|--------------------------------|  


                G/B                               C  
e|--------------------------------|--------------------------------|  
B|--0-0-------------0-0-----3-3---|--0-0-------------0-0-----1-1---|  
G|-------0-2-2--0--------0------0-|-------0-2-2--0--------0------0-|  
D|--------------------------------|--------------------------------|  
A|--2-2----2-2------2-2-----2-2---|--3-3----3-3------3-3-----3-3---|  
E|--------------------------------|--------------------------------|  



	  

No existe una video leccione para esta canción

request
Aumentar uno tonoAumentar uno tono
Aumentar uno semi-tonoAumentar uno semi-tono
Disminuir uno semi-tonoDisminuir uno semi-tono
Disminuir uno tonoDisminuir uno semi-tono
LosAcordes
Buscar
auto avanzar rasgueos aumentar disminuir cambiar color esconder acordes gráficos
losacordes exhibir acordes losacordes youTube video losacordes ocultar tabs losacordes ir hacia arriba losacordes