Dead Kennedys

Início > Dead Kenne... > acordes

Insight Tablatura

Dead Kennedys

Dificultad:IntermedioIntermedio

tuner correct add songbook print version text version salvar en e-mail
acordesukuleletablaturabaixobateríaarmónicaflautacavacopiano Guitar Pro
acordes

Insight

	  intro riff  
e|--------------------10-8--7--6-5---3-1-3-3-1-1-3----------------------------|  
B|--------------------12-10-9--8-7---5-3-3-3-1-1-3----------------------------|  
G|--------------------12-10-9--8-7---5-3-4-4-2-2-4----------------------------  
D|--------------------12-10-9--8-7---5-3-5-5-3-3-5----------------------------  
A|-----1-3-4-3-4-3-1--10-8--7--6-5---3-1-5-5-3-3-5----------------------------  
E|-3-3----------------10-8--7--6-5---3-1-3-3-1-1-3----------------------------  
 
verse  
who's that kid  
in the back of the room  
e|-8--9----8--6-3-3-1-1-3--10-8--5-5-3-3-5------------------------------------|  
B|-8--9----8--6-3-3-1-1-3--10-8--5-5-3-3-5------------------------------------  
G|-9--10---9--7-4-4-2-2-4--11-9--6-6-4-4-6------------------------------------  
D|-10-11---10-8-5-5-3-3-5--12-10-7-7-5-5-7------------------------------------|  
A|-10-11---10-8-5-5-3-3-5--12-10-7-7-5-5-7------------------------------------|  
E|-8--9----8--6-3-3-1-1-3--10-8--5-5-3-3-5------------------------------------  
 
chorus  
we never talk t him  
e|-10--10--8--10-8--5--10--10-8--8--6-----------------------------------------|  
B|-10--10--8--10-8--5--10--10-8--8--6-----------------------------------------|  
G|-11--11--9--11-9--6--11--11-9--9--7-----------------------------------------|  
D|-12--12--10-12-10-7--12--12-10-10-8-----------------------------------------|  
A|-12--12--10-12-10-7--12--12-10-10-8-----------------------------------------  
E|-10--10--8--10-8--5--10--10-8--8--6-----------------------------------------  
 
we're all glad  
we got careers  
e|-10--8--10-8--10--8--5-10-8--10-8--13-12-11-10-5-3-5-3-5-3-0----|  
B|-10--8--10-8--10--8--5-10-8--10-8--13-12-11-10-5-3-5-3-5-3-0----|  
G|-11--9--11-9--11--9--6-11-9--11-9--14-13-12-11-6-4-6-4-6-4-1----|  
D|-12--10-12-10-12--10-7-12-10-12-10-15-14-13-12-7-5-7-5-7-5-2----|  
A|-12--10-12-10-12--10-7-12-10-12-10-15-14-13-12-7-5-7-5-7-5-2----|  
E|-10--8--10-8--10--8--5-10-8--10-8--13-12-11-10-5-3-5-3-5-3-0----|  
 
he says we're growing old  
e|----------------------|  
B|----------------------|  
G|----------------------|  
D|--------5---5---------|  
A|------5---5-----------|  
E|-7-7------------------| 
 

	  

No existe una video leccione para esta canción

request
LosAcordes
Buscar
auto avanzar rasgueos aumentar disminuir cambiar color esconder acordes gráficos
losacordes exhibir acordes losacordes youTube video losacordes ocultar tabs losacordes ir hacia arriba losacordes