Dead Kennedys

Início > Dead Kenne... > acordes

Insight Tablatura Bajo

Dead Kennedys

Dificultad:Ningún gradoNingún grado

tuner correct add songbook print version text version salvar en e-mail
acordesukuleletablaturabaixobateríaarmónicaflautacavacopiano Guitar Pro
acordes

Insight

	  


 

Band: 
Album: Give me Convenience or give me Death / Fresh Fruit for Rotting Vegetables Edition 2001

Tabbed by Brightside ([email protected])

Basically, the song is quite EASY, but the incredibly high speed makes it quite DIFFICULT. 
It's my very first tab so don't worry about mistakes, at least 
it helps you to learn the song.

                   Riff 1                                 Riff 2
G|-----------------------------------------|--------------------------------|
D|-----------------------------------------|----53-210------53-210----------|       
A|------1-34343--1----------1-34343-1------|--------------------------------|
E|--33--------------3-1-33-----------3-1-3-|--------------------------------|
                                  
Bridge  (3x)                             Riff3
G|----------------|---------------------------------------------------------
D|----------------|---------------------------------------------------------
A|--3-1-----------|-3-4----3-4----3-1-------------3-1-----------------------
E|-------3--1--3--|-------------------3--1--3---------3--1--3---------------

                                 Riff 3
G|--------------------------------------------------------------------------|
D|--------------------------------------------------------------------------|
A|--3-4---3-4---3-1-------------3-1------------5-3---------- 5-3------------|
E|------------------3--1--3---------3--1--3--------5--3--5-------5-3-5------|

                                     Chorus
G----------------------------------------------------------------------------
D|----------4--------------2------------4------------------------4-----------
A|----5555-----55-4--3333-----334--5555---55-3--000000--34-5555----44-4-3333-
E|---------------------------------------------------------------------------

                 Chorus
G|-----------------------------------|
D|--2------------0-------------------|
A|-----33-2-1111---111--0------------|
E|-----------------------------------|


Riff1
Riff 2
Bridge (2x)
Riff 3
Chorus
                  Extremely Fast Finish
G|--------------------------------------------------------|
D|--------------------------------------------------------|
A|535353---3-5353-8765-5-535353----3-5353-8765------------|
E|-------5----------------------5-------------------------|

   ("We're all planning our careers")
G|--------------------------------------------------------|
D|--------------------------------------------------------|
A|--------------------------------------------------------|
E|---535353--0---535353--0--535353--0---------------------|

I think that's it. I am sure that the ending of the chorus
 is wrong, but it sounds ok...

	  

No existe una video leccione para esta canción

request
LosAcordes
Buscar
auto avanzar rasgueos aumentar disminuir cambiar color esconder acordes gráficos
losacordes exhibir acordes losacordes youTube video losacordes ocultar tabs losacordes ir hacia arriba losacordes