Celine Dion

Início > Celine Dio... > acordes

Titanic Tablatura

Celine Dion

Dificultad:Ningún gradoNingún grado

Teusalves

tuner correct add songbook print version text version salvar en e-mail
acordesukuleletablaturabajobateríaarmónicaflautacavacopiano Guitar Pro
acordes

Titanic

	  

e------------------------0-------------------------------------        
b-1-1-1-1-0-1---1-0-1--3---3---1-1-1-1-0-1--1------------------        
G----------------------        
D--------------------------------------------------------------          
A--------------------------------------------------------------        
E--------------------------------------------------------------   

e------------------------0-------------------------------------        
b-1-1-1-1-0-1---1-0-1--3---3---1-1-1-1-0-1--1------------------        
G----------------------        
D--------------------------------------------------------------          
A--------------------------------------------------------------        
E--------------------------------------------------------------  

e-------3-1-0---0-1-0-----------------0------------------------        
b-1-3---------3------3-1-0-1--1-0-1-3---3----------------------        
G----0-----------------        
D--------------------------------------------------------------          
A--------------------------------------------------------------        
E--------------------------------------------------------------   

e-------3-1-0---0-1-0-----------------0------------------------        
b-1-3---------3------3-1-0-1--1-0-1-3---3----------------------        
G----0-----------------        
D--------------------------------------------------------------          
A--------------------------------------------------------------        
E--------------------------------------------------------------   

e------------------------0-------------------------------------        
b-1-1-1-1-0-1---1-0-1--3---3---1-1-1-1-0-1--1------------------        
G----------------------        
D--------------------------------------------------------------          
A--------------------------------------------------------------        
E--------------------------------------------------------------  

e------------------------0-------------------------------------        
b-1-1-1-1-0-1---1-0-1--3---3---1-1-1-1-0-1--1------------------        
G----------------------        
D--------------------------------------------------------------          
A--------------------------------------------------------------        
E--------------------------------------------------------------  

e-------3-1-0---0-1-0-----------------0------------------------        
b-1-3---------3------3-1-0-1--1-0-1-3---3----------------------        
G----0-----------------        
D--------------------------------------------------------------          
A--------------------------------------------------------------        
E--------------------------------------------------------------  

e-------3-1-0---0-1-0-----------------0------------------------        
b-1-3---------3------3-1-0-1--1-0-1-3---3----------------------        
G----0-----------------        
D--------------------------------------------------------------          
A--------------------------------------------------------------        
E-------------------------------------------------------------- 
	  

No existe una video leccione para esta canción

request
LosAcordes
Buscar
auto avanzar rasgueos aumentar disminuir cambiar color esconder acordes gráficos
losacordes exhibir acordes losacordes youTube video losacordes ocultar tabs losacordes ir hacia arriba losacordes