Everclear

Início > Everclear > acordes

Santa Monica (ver. 2) Tablatura Bajo

Everclear

Dificultad:Ningún gradoNingún grado

tuner correct add songbook print version text version salvar en e-mail
acordesukuleletablaturabaixobateríaarmónicaflautacavacopiano Guitar Pro
acordes

Santa Monica (ver. 2)

	  

 	
Song Title:	
Tabbed By:	Tobias Brydon
~*~*~*~*~*~*~*~*~*~*~*~*~

Of the tabs I've seen for this song, none have been
complete (or correct). I'm quite sure this is complete,
however I could be wrong, and encourage you to listen
to it yourself to make sure you get it the way you want
it.  The timing is simple as anybody who's heard the
song knows.


Bass enters with
G|-------------|
D|-------------|
A|-3-2-0-2-----|
E|---------3-3-|

Main Riff
G|-------------|
D|-------------|
A|-------------|
E|-3-3-0-0-3-3-|

Main Riff (variation 1)
G|-----|-------------|
D|-----|-------------|
A|-----|-------------|
E|-3-3-|-3-3-0-0-3-3-|

Main Riff (variation 2)
G|-----------|
D|-----------|
A|-----------|
E|-3-3-0-0-3-| Hold Final Note

Second Riff
G|-------------|-------------|-------------|
D|-------------|-------------|-------------|
A|---------5-5-|-5-5-7-7-3-3-|-3-3-5-5-----|
E|-3-3-0-0-----|-------------|---------3-3-|

Bridge (Before First Chorus)
G|-------------------------|
D|-------------------------|
A|-----------------3-3-----|
E|-3-3-0-0-3-3-3-3-----5-5-|

Third Riff
G|---------------------------------|
D|---------------------------------|
A|-5-5-5-5-5-5-7-7-3-3-3-3-3-3-5-5-|
E|---------------------------------|


Chorus
G|-----------------|-----------------|
D|-----------------|-----------------|
A|-3-3-3-3-3-3-5-5-|-------------7-7-|
E|-----------------|-3-3-3-3-3-3-----|


G|-----------------|-----------------|
D|-----------------|-----------------|
A|-5-5-5-5-5-5-3-3-|-------------5-5-|
E|-----------------|-3-3-3-3-3-3-----|


G|-----------------|-----------------|
D|-----------------|-----------------|
A|-3-3-3-3-3-3-5-5-|-------------7-7-|
E|-----------------|-3-3-3-3-3-3-----|


G|-----------------|
D|-----------------|
A|-5-5-5-5-5-5-3-3-|
E|-----------------|

Bridge 2
G|-----------------|
D|-----------------|
A|-------------5-5-|
E|-3-3-3-3-3-3-----|


Progression:  This looks much more complicated than it is (sorry)!

Bass Intro 1x
Main Riff 3x
Second Riff 1x
Main Riff 1x
Second Riff 1x
Main Riff 1x
Bridge 1 1x
Chorus 1x
Main Riff (variation 1) 1x
Main Riff 1x
Main Riff (variation 2) 1x
Main Riff (variation 1) 1x
Main Riff 2x
Third Riff 1x
Main Riff (variation 1) 1x
Main Riff 3x
Third Riff 1x
Main Riff (variation 1) 1x
Third Riff 1x
Main Riff (variation 1) 1x
Chorus 1x
Bridge 2 1x
Chorus 1x
Main Riff (variation 1) 1x
Main Riff 6x
Main Riff (variation 2) 1x

When you find errors in this (which is likely) please tell me about them.
[email protected]

	  

No existe una video leccione para esta canción

request
LosAcordes
Buscar
auto avanzar rasgueos aumentar disminuir cambiar color esconder acordes gráficos
losacordes exhibir acordes losacordes youTube video losacordes ocultar tabs losacordes ir hacia arriba losacordes