Everclear

Início > Everclear > acordes

Santa Monica Tablatura Bajo

Everclear

Dificultad:Ningún gradoNingún grado

tuner correct add songbook print version text version salvar en e-mail
acordesukuleletablaturabaixobateriaarmónicaflautacavacopiano Guitar Pro
acordes

Santa Monica

	  


This is pretty much the same as the one that was here before but i made a few changes and 
I'm quite sure that this is 100% correct, but i could be wrong so let me 
know what you think. 
E-mail me at [email protected]

Bass Intro (x1)
G|-------------|
D|-------------|
A|-3-2-0-2-----|
E|---------3-3-|

Main Riff (x3)
G|-------------|
D|-------------|
A|-------------|
E|-3-3-0-0-3-3-|

Second Riff (x1)
G|-------------|-------------|-------------|
D|-------------|-------------|-------------|
A|---------5-5-|-5-5-7-7-3-3-|-3-3-5-5-----|
E|-3-3-0-0-----|-------------|---------3-3-|

Main Riff (x1)

Second Riff (x1)

Bridge 1 (x1)
G|-------------------------|
D|-------------------------|
A|-----------------3-3-----|
E|-3-3-0-0-3-3-3-3-----5-5-|

Chorus (x1)
G|-----------------|-----------------|
D|-----------------|-----------------|
A|-3-3-3-3-3-3-5-5-|-------------7-7-|
E|-----------------|-3-3-3-3-3-3-----|

G|-----------------|-----------------|
D|-----------------|-----------------|
A|-5-5-5-5-5-5-3-3-|-------------5-5-|
E|-----------------|-3-3-3-3-3-3-----|

G|-----------------|-----------------|
D|-----------------|-----------------|
A|-3-3-3-3-3-3-5-5-|-------------7-7-|
E|-----------------|-3-3-3-3-3-3-----|

G|-----------------|
D|-----------------|
A|-5-5-5-5-5-5-3-3-|
E|-----------------|

Variation 1 (x1)
G|-----|-------------|
D|-----|-------------|
A|-----|-------------|
E|-3-3-|-3-3-0-0-3-3-|

Main Riff (x1)

Variation 2 (x1)
G|-----------|
D|-----------|
A|-----------|
E|-3-3-0-0-3-| Hold Final Note

Variation 1 (x1) 

Main Riff (x2)

Variation 3 (x1)
G|-----------------------------------------|
D|-----------------------------------------|
A|---------5-5-5-5-5-5-7-7-3-3-3-3-3-3-5-5-|
E|-3-3-0-0---------------------------------|

Variation 1 (x2) Pause for about a second in between the two time you play it.

Main Riff (x2)

Variation 3 (x1)

Variation 1 (x1)

Variation 3 (x1)

Variation 1 (x1)

Chorus (x1)

Bridge 2 (x1)
G|-----------------|
D|-----------------|
A|-------------5-5-|
E|-3-3-3-3-3-3-----|

Chorus (x1)

Variation 1 (x1)

Main Riff (x6)

Variation 2 (x1)

	  

No existe una video leccione para esta canción

request
LosAcordes
Buscar
auto avanzar rasgueos aumentar disminuir cambiar color esconder acordes gráficos
losacordes exhibir acordes losacordes youTube video losacordes ocultar tabs losacordes ir hacia arriba losacordes