Dream Theater

Início > Dream Thea... > acordes

The Ytse Jam Tablatura Bajo

Dream Theater

Dificultad:AdelantadoAdelantado

tuner correct add songbook print version text version salvar en e-mail
acordesukuleletablaturabaixobateríaarmónicaflautacavacopiano Guitar Pro
acordes

The Ytse Jam

	  

 - 
AUTHOR: PATO MTZ



INTRO
G----4------------3--|
D----2---3---2----1--|
A--------1---0-------|
E--------------------|


FILL1 (Repeat 6 times)
G-----------------------------------------------------------
D-----------------------------------------------------------
A-5-4-5---7-5-7---8-7-8-10910-8-7-8-7-5-7-5-4-5-------------
E-----------------------------------------------------------

G-----------------------------------------------------------
D-8-7-8---7-5-7---5-3-5---3-2-3-----------------------------
A-----------------------------------------------------------   
E-----------------------------------------------------------


Chorus (3 Times)
G-----------------------------------------------------------
D---------------------------------------------0-2-3---------
A-0---0---1---0---0---1-4---0---0---1---0-1-4---------------
E-----------3-------------------------3---------------------

G-----------------------1-------------------1-2-4-5---------
D-2---2---3-0-2---2---3-----2---2---3-0-2-3-----------------
A----------------------------------------------------------- 
E-----------------------------------------------------------

G-----------------------------------------------------------
D---------------------------------------3-----2-----0-------
A-0---1-----3-----5-----3-----0-----------------------------
E-----------------------------------------------------------

G-----------------------------------------------------------
D-----------------------------------------------------------
A---------------------------------------4-----2-----1-------
E-0---1-----3-----4-----1-----0-----------------------------

(This part is the intro again, play it 2 times)
G-----------------------------------------------------------
D-----------------------------------------------------------
A-5-4-5---7-5-7---8-7-8-10910-8-7-8-7-5-7-5-4-5-------------
E-----------------------------------------------------------

G-----------------------------------------------------------
D-8-7-8---7-5-7---5-3-5---3-2-3-----------------------------
A-----------------------------------------------------------  
E-----------------------------------------------------------


G----------------------------3---2---0---3------------------
D--0-----2-----3-------0------------------------------------
A------------------0-3--------------------------------------
E----------------3------------------------------------------

G--------------------------7---5----------------------------
D--0-----2-----3-------0-----------8-7-5-787----------------
A------------------0-3--------------------------------------
E----------------3------------------------------------------

G-15-14-15----14-12-14----12-10-12----10-9-10---------------
D------------------------------------------------14-12-14---
A-----------------------------------------------------------
E-----------------------------------------------------------

G-----------------------------
D-12-11-12----11-9-11-7-------
A-----------------------------
E-----------------------------

G-----------------------------------------2/3\2----------------
D-------------------------------------3-2-------3-2-0----------
A-0-----------1-0-------------1-3-5-4--------------------------  
E--------------------------------------------------------------

G-----------------------------------------2/3\2----------------
D-------------------------------------3-2-------3-2-0----------
A-0-00--00--001-0-00--00--0---1-3-5-4--------------------------
E--------------------------------------------------------------

G-------------------------------------------------2/3\2--------
D-------------------------------------3-0---------------3-2-0--
A-0-00--00--001-0-00--00--0---1-3-5-4--------------------------
E--------------------------------------------------------------



Keyboard solo:
G------------------2/3\2----------------------2/3\2------------
D------------------------3--------------2-1-1-------3----------
A-0---0-000-0001-1----------0--0-000-000-----------------------  x 4
E--------------------------------------------------------------



Guitar solo:
G--------------------------------------------------------------
D--------------------------------------------------------------
A----------------5/6\5\3-5-3-----------------------------------
E-3---3-333-3334-------------6-4-------------------------------

--------------------------------------------------------------
------------------5/6\5\3-5-3---------------------------------
--------------4---------------6-5-----------------------------  x 4
-3---3-333-333--------------------4-3-3-----------------------
                                 BASS SOLO:

14-14-14-141415-15-15-15-15-1516-16-1618-18-1818-18-17192019-171919---19-----
--------------------------------------------------------------------20--20-18
-----------------------------------------------------------------------------
-----------------------------------------------------------------------------

----------------------------------17--------------------14161619171517--------
------------20191719----------1619--201920-171514151517---------------19171715
17171717-17---------20-171820-------------------------------------------------
------------------------------------------------------------------------------
                        |     |
-----16171916--16--|-|----------------|-|                 
-1919--------19----|-|o-191517211517-o|-|
-------------------|-|o--------------o|-|
-------------------|-|----------------|-|


 DRUMS SOLO

After the drums solo:
G---------------5-4------------------------------------
D----0--3--7--6-----3----------------------------------
A--0------------------4-4-4~---------------------------
E------------------------------------------------------

G---------------5-4------------------------------------
D----0--3--7--6-----0-3-7-5~---------------------------
A--0---------------------------------------------------  2x
E------------------------------------------------------

PAUSE

            Here a detail: the number "9x" means that you must play
            9 times the part above indicated. And the "Nx" means you
            have to play "N" times that part.

G------|-----|-------------------------------------------
D------|-----|-3~------------2~--------3-3-3---7--1-2-2--
A---7--|--5--|-----3-3-3-3-------2-2---------------------
E------|-----|-------------------------------------------
    9x    9x

This fill, goes to the "fast" part
G-------2-1-5-4-----------------------------------------
D---0-3---------3---------------------------------------
A-0-----------------------------------------------------
E-------------------------------------------------------

The "fast" part
G--9-|-10-|-12-|-14-|-16-|-14-|-17-|-19-|----|-------
D----|----|----|----|----|----|----|----|----|-------
A----|----|----|----|----|----|----|----|----|-------
E----|----|----|----|----|----|----|----|-0--|-------
  6x   6x   6x   6x   6x   4x   5x   5x   Nx


G-7-7-7-------|----|--7-7-7-----|-----|--4--|
D-------------|----|------------|-----|-----|
A-------7-7-7-|----|---------7--|--8--|-----|
E-------------|-0--|------------|-----|-----|
                Nx           Nx   Nx    6x


G--2--|--9---|--10-|-2--|-0-|----|-----|-----|-4-|--2-|
D-----|------|-----|----|---|----|-----|--3--|---|----|
A-----|------|-----|----|---|--7-|-5---|-----|---|----|
E-----|------|-----|----|---|----|-----|-----|---|----|
   4x    12x    Nx   6x   4x  12x  12x   12x   6x  6x

G-----|---|----|-4-|-2-|-----|---|---|
D-----|---|-3--|---|---|-----|---|-3-|
A--7--|-5-|----|---|---|--7--|-5-|---|
E-----|---|----|---|---|-----|---|---|
   12x 12x  12x  6x  6x  12x  12x  12x


Repeat intro, with this part at the end:
G-15-14-15----14-12-14----12-10-12----10-9-10---------------
D------------------------------------------------14-12-14---
A-----------------------------------------------------------
E-----------------------------------------------------------

G-----------------------------||
D-12-11-12----11-9-11-7-------||
A-----------------------------||
E-----------------------------||

	  

No existe una video leccione para esta canción

request
LosAcordes
Buscar
auto avanzar rasgueos aumentar disminuir cambiar color esconder acordes gráficos
losacordes exhibir acordes losacordes youTube video losacordes ocultar tabs losacordes ir hacia arriba losacordes