Dream Theater

Início > Dream Thea... > acordes

The Ytse Jam Tablatura

Dream Theater

Dificultad:PrincipiantePrincipiante

tuner correct add songbook print version text version salvar en e-mail
acordesukuleletablaturabaixobateríaarmónicaflautacavacopiano Guitar Pro
acordes

The Ytse Jam

	   

                                 The Ytse Jam                                    
                               (without sollo) 
 
Submitter:Sanjin 
 
 
                                                                              
E||------|------|-------------------|-------------------|-------------------| 
B||------|------|--5----------------|-------------------|-------------------| 
G||------|------|--4----------------|--3----------------|--2----------------| 
D||------|------|--2----------------|--3----------------|--2----------------| 
A||------|------|-------------------|--1----------------|--0----------------| 
E||------|------|-------------------|-------------------|-------------------| 
 
 
                                                                              
-------------------|------------------|------------------|------------------| 
--4----------------|------------------|------------------|------------------| 
--3----------------|------------------|------------------|------------------| 
--1----------------|------------------|------------------|------------------| 
--1----------------|------------------|------------------|------------------| 
-------------------|------------------|------------------|------------------| 
 
 
                                                                               
-------------------------------|----------------------------|----------------| 
-------------------------------|----------------------------|----------------| 
--7-6-7-----9-7-9-----10-9-10--|--12-10-12--10-9-10--9-7-9--|--7-6-7---------| 
---------0---------0-----------|----------------------------|---------0--8-7-| 
-------------------------------|----------------------------|----------------| 
-------------------------------|----------------------------|----------------| 
 
 
                                                            
--------------------------|-------------------------------| 
--------------------------|-------------------------------| 
--------------------------|--7-6-7-----9-7-9-----10-9-10--| 
--8--7-5-7--5-3-5--3-2-3--|---------0---------0-----------| 
--------------------------|-------------------------------| 
--------------------------|-------------------------------| 
 
 
                                                                          
----------------------------|----------------|--------------------------| 
----------------------------|----------------|--------------------------| 
--12-10-12--10-9-10--9-7-9--|--7-6-7---------|--------------------------| 
----------------------------|---------0--8-7-|--8--7-5-7--5-3-5--3-2-3--| 
----------------------------|----------------|--------------------------| 
----------------------------|----------------|--------------------------| 
 
 
                                                                               
-------------------------------|----------------------------|----------------| 
-------------------------------|----------------------------|----------------| 
--7-6-7-----9-7-9-----10-9-10--|--12-10-12--10-9-10--9-7-9--|--7-6-7---------| 
---------0---------0-----------|----------------------------|---------0--8-7-| 
-------------------------------|----------------------------|----------------| 
-------------------------------|----------------------------|----------------| 
 
 
                                                            
--------------------------|-------------------------------| 
--------------------------|-------------------------------| 
--------------------------|--7-6-7-----9-7-9-----10-9-10--| 
--8--7-5-7--5-3-5--3-2-3--|---------0---------0-----------| 
--------------------------|-------------------------------| 
--------------------------|-------------------------------| 
 
 
                                                                          
----------------------------|----------------|--------------------------| 
----------------------------|----------------|--------------------------| 
--12-10-12--10-9-10--9-7-9--|--7-6-7---------|--------------------------| 
----------------------------|---------0--8-7-|--8--7-5-7--5-3-5--3-2-3--| 
----------------------------|----------------|--------------------------| 
----------------------------|----------------|--------------------------| 
 
 
                                                                               
-------------------------------|----------------------------|----------------| 
-------------------------------|----------------------------|----------------| 
--7-6-7-----9-7-9-----10-9-10--|--12-10-12--10-9-10--9-7-9--|--7-6-7---------| 
---------0---------0-----------|----------------------------|---------0--8-7-| 
-------------------------------|----------------------------|----------------| 
-------------------------------|----------------------------|----------------| 
 
 
                                                            
--------------------------|-------------------------------| 
--------------------------|-------------------------------| 
--------------------------|--7-6-7-----9-7-9-----10-9-10--| 
--8--7-5-7--5-3-5--3-2-3--|---------0---------0-----------| 
--------------------------|-------------------------------| 
--------------------------|-------------------------------| 
 
 
                                                                          
----------------------------|----------------|--------------------------| 
----------------------------|----------------|--------------------------| 
--12-10-12--10-9-10--9-7-9--|--7-6-7---------|--------------------------| 
----------------------------|---------0--8-7-|--8--7-5-7--5-3-5--3-2-3--| 
----------------------------|----------------|--------------------------| 
----------------------------|----------------|--------------------------| 
 
 
                                                                               
------------------|------------------|------------------|--------------------| 
------------------|------------------|------------------|--------------------| 
------------------|------------------|------------------|--------------------| 
--2----2----3-----|--2----2----------|--2----2----------|-----------0--2--3--| 
--0----0----1-----|--0----0----1--4--|--0----0----1-----|--0--1--4-----------| 
---------------3--|------------------|---------------3--|--------------------| 
 
 
                                                                         
-----------------------|-----------------------|-----------------------| 
-----------------------|-----------------------|-----------------------| 
-----------------------|-------------------1-1-|-----------------------| 
--2--2-2-2--2-3-3--0-0-|--2--2-2-2--2-3-3------|--2--2-2-2--2-3-3--0-0-| 
-----------------------|-----------------------|-----------------------| 
-----------------------|-----------------------|-----------------------| 
 
 
                                                                          
--------------------------|----------------------|----------------------| 
--------------------------|----------------------|----------------------| 
----------1-1-2-2-4-4-5-5-|----------------------|----------------------| 
--2-2-3-3-----------------|--2------2------3-----|--2------2------------| 
--------------------------|--0--0-0-0--0-0-1-----|--0--0-0-0--0-0-1--4--| 
--------------------------|-------------------3--|----------------------| 
 
 
                                                                     
----------------------|--------------------|-----------------------| 
----------------------|--------------------|-----------------------| 
----------------------|--------------------|-----------------------| 
--2------2------3-----|-----------0--2--3--|--2--2-2-2--2-3-3--0-0-| 
--0--0-0-0--0-0-1-----|--0--1--4-----------|-----------------------| 
-------------------3--|--------------------|-----------------------| 
 
 
                                                                            
-----------------------|-----------------------|--------------------------| 
-----------------------|-----------------------|--------------------------| 
-------------------1-1-|-----------------------|----------1-1-2-2-4-4-5-5-| 
--2--2-2-2--2-3-3------|--2--2-2-2--2-3-3--0-0-|--2-2-3-3-----------------| 
-----------------------|-----------------------|--------------------------| 
-----------------------|-----------------------|--------------------------| 
 
 
                                                        
------------------------|-----------------------------| 
------------------------|-----------------------------| 
---------10------9------|--7--------------------------| 
--7--7-7-----7-7----7-7-|-------8-8-10-10-12-12-11-11-| 
------------------------|-----------------------------| 
------------------------|-----------------------------| 
 
 
                                                         
-------------------------------------------------------| 
------------10-10-11-11-8-8-10-10-11-11-14-14-10-10-11-| 
--10-10-9-9--------------------------------------------| 
-------------------------------------------------------| 
-------------------------------------------------------| 
-------------------------------------------------------| 
 
 
                                                                     
------------------------10-10-12-12-13-13-|------------------------| 
--8-8-10-10-11-11-14-14-------------------|------------------------| 
------------------------------------------|------------------------| 
------------------------------------------|---------10------9------| 
------------------------------------------|--7--7-7-----7-7----7-7-| 
------------------------------------------|------------------------| 
 
 
                                                                    
-----------------------------|------------12-13-10-12-13-16-12-13-| 
-----------------------------|------------------------------------| 
-----------------------------|------------------------------------| 
--7--------------------------|--10-10-9-9-------------------------| 
-------8-8-10-10-12-12-11-11-|------------------------------------| 
-----------------------------|------------------------------------| 
 
 
                                                                            
--10-12-13-16-17-19-20------|----------------------|----------------------| 
----------------------------|----------------------|----------------------| 
----------------------------|----------------------|----------------------| 
----------------------------|--2------2------3-----|--2------2------------| 
----------------------------|--0--0-0-0--0-0-1-----|--0--0-0-0--0-0-1--4--| 
----------------------------|-------------------3--|----------------------| 
 
 
                                                                     
----------------------|--------------------|-----------------------| 
----------------------|--------------------|-----------------------| 
----------------------|--------------------|-----------------------| 
--2------2------3-----|-----------0--2--3--|--2--2-2-2--2-3-3--0-0-| 
--0--0-0-0--0-0-1-----|--0--1--4-----------|-----------------------| 
-------------------3--|--------------------|-----------------------| 
 
 
                                                                                
-----------------------|-----------------------|--------------------------|---| 
-----------------------|-----------------------|--------------------------|---| 
-------------------1-1-|-----------------------|----------1-1-2-2-4-4-5-5-|---| 
--2--2-2-2--2-3-3------|--2--2-2-2--2-3-3--0-0-|--2-2-3-3-----------------|---| 
-----------------------|-----------------------|--------------------------|---| 
-----------------------|-----------------------|--------------------------|---| 
 
 
                                                             
---|---|---|---|---|---|---|-------------------------------| 
---|---|---|---|---|---|---|-------------------------------| 
---|---|---|---|---|---|---|--7-6-7-----9-7-9-----10-9-10--| 
---|---|---|---|---|---|---|---------0---------0-----------| 
---|---|---|---|---|---|---|-------------------------------| 
---|---|---|---|---|---|---|-------------------------------| 
 
 
                                                                          
----------------------------|----------------|--------------------------| 
----------------------------|----------------|--------------------------| 
--12-10-12--10-9-10--9-7-9--|--7-6-7---------|--------------------------| 
----------------------------|---------0--8-7-|--8--7-5-7--5-3-5--3-2-3--| 
----------------------------|----------------|--------------------------| 
----------------------------|----------------|--------------------------| 
 
 
                                                                               
-------------------------------|----------------------------|----------------| 
-------------------------------|----------------------------|----------------| 
--7-6-7-----9-7-9-----10-9-10--|--12-10-12--10-9-10--9-7-9--|--7-6-7---------| 
---------0---------0-----------|----------------------------|---------0--8-7-| 
-------------------------------|----------------------------|----------------| 
-------------------------------|----------------------------|----------------| 
 
 
                                                                            
--------------------------|--------------------------|--------1-----0-----| 
--------------------------|--------3--------3--------|--3-----------------| 
--------------------------|-----2--------0--------2--|-----2-----2-----2--| 
--8--7-5-7--5-3-5--3-2-3--|--0--------2--------3-----|--------------------| 
--------------------------|--------------------------|--------------------| 
--------------------------|--------------------------|--------------------| 
 
 
                                                                   
--------------|-----------------------|--------------------------| 
--------3-----|--3-----3-----3-----3--|--------3--------3--------| 
-----2-----3--|-----2-----0-----------|-----2--------0--------2--| 
--0-----------|-----------------3-----|--0--------2--------3-----| 
--------------|-----------------------|--------------------------| 
--------------|-----------------------|--------------------------| 
 
 
                                                                
--------1-----0-----|--------------|--------------------------| 
--3-----------------|--------3-----|--3-----3-----3-----3-----| 
-----2-----2-----2--|-----2-----3--|-----2-----0--------------| 
--------------------|--0-----------|-----------------3-----2--| 
--------------------|--------------|--------------------------| 
--------------------|--------------|--------------------------| 
 
 
                                                                                 
---------------------|-------------------------|-------------------------------| 
---------------------|-------------------------|-------------------------------| 
--7------5------2----|-------5----5------------|-------------------------------| 
--7------5------2----|--5----5----5----0-0-0-0-|--8--0-0-0-7-0-0-5-0-0-0-3-----| 
--5------3------0----|--5----3----3------------|----------------------------3--| 
---------------------|--3----------------------|-------------------------------| 
 
 
                                                                              
---------------------|----------------------|-------------------------------| 
---------------------|----------------------|-------------------------------| 
--7------5------2----|-------5----5----7----|-------------------------------| 
--7------5------2----|--5----5----5----7----|----8-7-8--7-5-7---------------| 
--5------3------0----|--5----3----3----5----|------------------10-8-10--8-7-| 
---------------------|--3-------------------|-------------------------------| 
 
 
                                                          
--------------------------|-----------------------------| 
--------------------------|-----------------------------| 
--------------------------|-----------------------------| 
--------------------------|--2------3------2------3--2--| 
--8--7-5-7--5-4-5--4---4--|--0--0-0-0--0-0-0--0-0-1--0--| 
---------------------6----|-----------------------------| 
 
 
                                                                
---------------------------|----------------------------------| 
----------------------3----|----------------------------------| 
----------------------2----|----------------------------------| 
--------3------2------0----|----------------------------------| 
----0-0-0--0-0-0--0-0------|--1-1-1-1-3-3-3-3-5-5-5-5-4-4-4-4-| 
---------------------------|----------------------------------| 
 
 
                                                                        
------------------------------|--------------------|------------------| 
------------------------------|--------------------|------------------| 
------------------2h-3h-2-----|--------------------|------------------| 
--3-3-3-3-2-2-2-2----------2--|--------------3--2--|------------------| 
---------------------------0--|--------------1--0--|------------------| 
------------------------------|--------------------|------------------| 
 
 
                                                                      
----------------------------------|---------------------------------| 
----------------------------------|---------------------------------| 
----------------------------------|------------------2-2-3-3-2-2----| 
----------------------------------|--3-3-3-3-2-2-2-2-------------2--| 
--1-1-1-1-3-3-3-3-5-5-5-5-4-4-4-4-|------------------------------0--| 
----------------------------------|---------------------------------| 
 
 
                                                           
-----------------------------|---------------------------| 
-----------------------------|----------------------3----| 
-----------------------------|----------------------2----| 
--2------3------2------3--2--|--------3------2------0----| 
--0--0-0-0--0-0-0--0-0-1--0--|----0-0-0--0-0-0--0-0------| 
-----------------------------|---------------------------| 
 
 
                                                                      
----------------------------------|---------------------------------| 
----------------------------------|---------------------------------| 
----------------------------------|------------------2-2-3-3-2-2----| 
----------------------------------|--3-3-3-3-2-2-2-2-------------2--| 
--1-1-1-1-3-3-3-3-5-5-5-5-4-4-4-4-|------------------------------0--| 
----------------------------------|---------------------------------| 
 
 
                                                           
-----------------------------|---------------------------| 
-----------------------------|----------------------3----| 
-----------------------------|----------------------2----| 
--2------3------2------3--2--|--------3------2------0----| 
--0--0-0-0--0-0-0--0-0-1--0--|----0-0-0--0-0-0--0-0------| 
-----------------------------|---------------------------| 
 
 
                                                                                
----------------------------------|-----------------------|-------------------| 
----------------------------------|-----------------------|-------------------| 
----------------------------------|----------0------------|----------------2--| 
----------------------------------|--3-3-3-3-2------------|----------------2--| 
--1-1-1-1-3-3-3-3-5-5-5-5-4-4-4-4-|-----------------------|----------------0--| 
----------------------------------|-----------------------|-------------------| 
 
 
                                                       
-----------------------------|-----------------------| 
-----------------------------|-----------------------| 
--------------------------3--|----------2h3h2-----2--| 
--------------------------3--|--------------------2--| 
----0--0-0-0-0--0-0-0-0-0-1--|-----------------3--0--| 
-----------------------------|-----------------------| 
 
 
                                                        
-----------------------------|------------------------| 
-----------------------------|------------------------| 
--------------------------3--|-----------2-3-2-----2--| 
--------------------------1--|------3--------------2--| 
----0--0-0-0-0--0-0-0-0-0----|------1-----------3--0--| 
-----------------------------|------------------------| 
 
 
                                                       
-----------------------------|-----------------------| 
-----------------------------|-----------------------| 
--------------------------3--|----------2h3h2-----2--| 
--------------------------3--|--------------------2--| 
----0--0-0-0-0--0-0-0-0-0-1--|-----------------3--0--| 
-----------------------------|-----------------------| 
 
 
                                                        
-----------------------------|------------------------| 
-----------------------------|------------------------| 
--------------------------3--|-----------2-3-2-----2--| 
--------------------------1--|------3--------------2--| 
----0--0-0-0-0--0-0-0-0-0----|------1-----------3--0--| 
-----------------------------|------------------------| 
 
 
                                                       
-----------------------------|-----------------------| 
-----------------------------|-----------------------| 
--------------------------3--|----------2h3h2-----2--| 
--------------------------3--|--------------------2--| 
----0--0-0-0-0--0-0-0-0-0-1--|-----------------3--0--| 
-----------------------------|-----------------------| 
 
 
                                                        
-----------------------------|------------------------| 
-----------------------------|------------------------| 
--------------------------3--|-----------2-3-2-----2--| 
--------------------------1--|------3--------------2--| 
----0--0-0-0-0--0-0-0-0-0----|------1-----------3--0--| 
-----------------------------|------------------------| 
 
 
                                                       
-----------------------------|-----------------------| 
-----------------------------|-----------------------| 
--------------------------3--|----------2h3h2-----2--| 
--------------------------3--|--------------------2--| 
----0--0-0-0-0--0-0-0-0-0-1--|-----------------3--0--| 
-----------------------------|-----------------------| 
 
 
                                                        
-----------------------------|------------------------| 
-----------------------------|------------------------| 
--------------------------3--|-----------2h3h2-----2--| 
--------------------------1--|------3--------------2--| 
----0--0-0-0-0--0-0-0-0-0----|------1-----------3--0--| 
-----------------------------|------------------------| 
 
 
                                                           
------------------------------|--------------------------| 
------------------------------|--------------------------| 
------------------------------|--------------------------| 
------------------------------|--------------------------| 
--5------------------------6--|-------5-6-5-3-5-3--------| 
--3--3-3-3--3-3-3--3-3-3-3-4--|-------------------6-4----| 
 
 
                                                                  
------------------------------|---------------------------------| 
------------------------------|---------------------------------| 
------------------------------|---------------------------------| 
---------------------------6--|------5-6-5-3-5-3-----------6----| 
--5------------------------4--|------------------6-5-6--5--4----| 
--3--3-3-3--3-3-3--3-3-3-3----|----------------------4--3-------| 
 
 
                                                           
------------------------------|--------------------------| 
------------------------------|--------------------------| 
------------------------------|--------------------------| 
------------------------------|--------------------------| 
--5------------------------6--|-------5-6-5-3-5-3--------| 
--3--3-3-3--3-3-3--3-3-3-3-4--|-------------------6-4----| 
 
 
                                                                  
------------------------------|---------------------------------| 
------------------------------|---------------------------------| 
------------------------------|---------------------------------| 
---------------------------6--|------5-6-5-3-5-3-----------6----| 
--5------------------------4--|------------------6-5-6--5--4----| 
--3--3-3-3--3-3-3--3-3-3-3----|----------------------4--3-------| 
 
 
                                                           
------------------------------|--------------------------| 
------------------------------|--------------------------| 
------------------------------|--------------------------| 
------------------------------|--------------------------| 
--5------------------------6--|-------5-6-5-3-5-3--------| 
--3--3-3-3--3-3-3--3-3-3-3-4--|-------------------6-4----| 
 
 
                                                                  
------------------------------|---------------------------------| 
------------------------------|---------------------------------| 
------------------------------|---------------------------------| 
---------------------------6--|------5-6-5-3-5-3-----------6----| 
--5------------------------4--|------------------6-5-6--5--4----| 
--3--3-3-3--3-3-3--3-3-3-3----|----------------------4--3-------| 
 
 
                                                           
------------------------------|--------------------------| 
------------------------------|--------------------------| 
------------------------------|--------------------------| 
------------------------------|--------------------------| 
--5------------------------6--|-------5-6-5-3-5-3--------| 
--3--3-3-3--3-3-3--3-3-3-3-4--|-------------------6-4----| 
 
 
                                                                                
------------------------------|---------------------------------|------|------| 
------------------------------|---------------------------------|------|------| 
------------------------------|---------------------------------|------|------| 
---------------------------6--|------5-6-5-3-5-3-----------6----|------|------| 
--5------------------------4--|------------------6-5-6--5--4----|------|------| 
--3--3-3-3--3-3-3--3-3-3-3----|----------------------4--3-------|------|------| 
 
 
                                                                              
------|------|------|------|------|------|------|------|------|------|------| 
------|------|------|------|------|------|------|------|------|------|------| 
------|------|------|------|------|------|------|------|------|------|------| 
------|------|------|------|------|------|------|------|------|------|------| 
------|------|------|------|------|------|------|------|------|------|------| 
------|------|------|------|------|------|------|------|------|------|------| 
 
 
                                                                       
-----------------------------|------|--------------------------------| 
-----------------------------|------|--------------------------------| 
------------5----------------|------|------------5-------------------| 
--------7-6-------6-6---6----|------|--------7-6---9--7--10--14--13--| 
----5-8-------8-5-4-4---4----|------|----5-8----------5--8---12--11--| 
--5--------------------------|------|--5-----------------------------| 
 
 
                                                     
--------------|-----------------------------|------| 
--------------|-----------------------------|------| 
--------------|------------5----------------|------| 
--------------|--------7-6-------6-6---6----|------| 
--------------|----5-8-------8-5-4-4---4----|------| 
--------------|--5--------------------------|------| 
 
 
                                                              
--------------------------------|------|--------------------| 
--------------------------------|------|--------------------| 
------------5-------------------|------|--4--------5--------| 
--------7-6---9--7--10--14--13--|------|--2--------2--------| 
----5-8----------5--8---12--11--|------|--------------------| 
--5-----------------------------|------|--------------------| 
 
 
                                                                            
--------------------|--------------------------|--------------------------| 
--------------------|-----6-----6-----6-----6--|---------6-----------3----| 
--2--------3--------|--3-----3-----2-----2-----|---------5-----------3----| 
--0--------0--------|--------------------------|--3-3-3--3----1-1-1--1----| 
--------------------|--------------------------|--------------------------| 
--------------------|--------------------------|--------------------------| 
 
 
                                                              
------------------|--------------------|--------------------| 
------------------|--------------------|--------------------| 
------------5-----|--4--------5--------|--2--------3--------| 
--------7-6-------|--2--------2--------|--0--------0--------| 
----5-8-------8-5-|--------------------|--------------------| 
--5---------------|--------------------|--------------------| 
 
 
                                                                           
--------------------------|--------------------------|-------------------| 
-----6-----6-----6-----6--|---------6-----------4----|-------------------| 
--3-----3-----2-----2-----|---------5-----------3----|--4----------------| 
--------------------------|--3-3-3--3----1-1-1--1----|--2----------------| 
--------------------------|--------------------------|-------------------| 
--------------------------|--------------------------|-------------------| 
 
 
                                                                
-------------------|-------------------|----------------------| 
-------------------|-------------------|-------6---------6----| 
--2----------------|--5----------------|--3---------2---------| 
--0----------------|--3----------------|----------------------| 
-------------------|-------------------|----------------------| 
-------------------|-------------------|----------------------| 
 
 
                                                             
-------------------|-------------------|-------------------| 
-------------------|-------------------|-------------------| 
--4----------------|--2----------------|--5----------------| 
--2----------------|--0----------------|--3----------------| 
-------------------|-------------------|-------------------| 
-------------------|-------------------|-------------------| 
 
 
                                                                      
----------------------|-------7--------------|-------5--------------| 
-------6---------6----|------------8---------|------------5---------| 
--3---------2---------|-----------------9----|-----------------7----| 
----------------------|----------------------|----------------------| 
----------------------|--7-------------------|--5-------------------| 
----------------------|----------------------|----------------------| 
 
 
                                                                       
-------8---------------|----------------------|-------7--------------| 
------------8----------|-------6---------6----|------------8---------| 
-----------------10----|----------------------|-----------------9----| 
-----------------------|--8---------7---------|----------------------| 
--8--------------------|----------------------|--7-------------------| 
-----------------------|----------------------|----------------------| 
 
 
                                                                       
-------5--------------|-------8---------------|----------------------| 
------------5---------|------------8----------|-------6---------6----| 
-----------------7----|-----------------10----|----------------------| 
----------------------|-----------------------|--8---------7---------| 
--5-------------------|--8--------------------|----------------------| 
----------------------|-----------------------|----------------------| 
 
 
                                                           
----------------------------|----------------------------| 
----------------------------|----------------------------| 
---------4--4---------4--4--|---------2--2---------2--2--| 
--2--2-2-2--2--2--2-2-2--2--|--0--0-0-0--0--0--0-0-0--0--| 
----------------------------|----------------------------| 
----------------------------|----------------------------| 
 
 
                                                             
----------------------------|------------------------------| 
----------------------------|------------------------------| 
---------5--5---------5--5--|---------10--10---------9--9--| 
--3--3-3-3--3--3--3-3-3--3--|--8--8-8-8---8---7--7-7-7--7--| 
----------------------------|------------------------------| 
----------------------------|------------------------------| 
 
 
                                                           
----------------------------|----------------------------| 
----------------------------|----------------------------| 
---------4--4---------4--4--|---------2--2---------2--2--| 
--2--2-2-2--2--2--2-2-2--2--|--0--0-0-0--0--0--0-0-0--0--| 
----------------------------|----------------------------| 
----------------------------|----------------------------| 
 
 
                                                                         
----------------------------|----------------------|-------------------| 
----------------------------|-------6---------6----|-------------------| 
---------5--5---------5--5--|----------------------|-------------------| 
--3--3-3-3--3--3--3-3-3--3--|--3---------2---------|-------------------| 
----------------------------|----------------------|--7----------------| 
----------------------------|----------------------|-------------------| 
 
 
                                                              
--------------------|-------------------|-------------------| 
--------------------|-------------------|-------------------| 
--------------------|-------------------|-------------------| 
--------------------|--7----------------|-------------------| 
--5------------8----|-------------------|--8----------------| 
--------------------|-------------------|-------------------| 
 
 
                                                              
-------------------|--------------------|-------------------| 
-------------------|--------------------|-------------------| 
-------------------|--------------------|-------------------| 
-------------------|--------------------|--7----------------| 
--7----------------|--5------------8----|-------------------| 
-------------------|--------------------|-------------------| 
 
 
                                                               
-------------------|-------------------|---------------------| 
-------------------|-------------------|---------------------| 
-------------------|--9----------------|--7------------10----| 
--8----------------|-------------------|---------------------| 
-------------------|-------------------|---------------------| 
-------------------|-------------------|---------------------| 
 
 
                                                                
--------------------|--------------------|--------------------| 
--10----------------|--8--------6--------|--8-----------------| 
--------------------|--------------------|-----------9--------| 
--------------------|--------------------|--------------------| 
--------------------|--------------------|--------------------| 
--------------------|--------------------|--------------------| 
 
 
                                                                   
-----------12--------|--13--------17--------|--18----------------| 
---------------------|----------------------|--------------------| 
--7------------------|----------------------|--------------------| 
---------------------|----------------------|--------------------| 
---------------------|----------------------|--------------------| 
---------------------|----------------------|--------------------| 
 
 
                                                                             
------------------|------------------|------------------|------------------| 
------------------|------------------|------------------|------------------| 
--4----4----4--2--|--4----4----4--5--|--4----4----4--2--|--4----4----4--5--| 
--2----2----2--0--|--2----2----2--3--|--2----2----2--0--|--2----2----2--3--| 
------------------|------------------|------------------|------------------| 
------------------|------------------|------------------|------------------| 
 
 
                                                                               
-------------------------------|----------------------------|----------------| 
-------------------------------|----------------------------|----------------| 
--7-6-7-----9-7-9-----10-9-10--|--12-10-12--10-9-10--9-7-9--|--7-6-7---------| 
---------0---------0-----------|----------------------------|---------0--8-7-| 
-------------------------------|----------------------------|----------------| 
-------------------------------|----------------------------|----------------| 
 
 
                                                            
--------------------------|-------------------------------| 
--------------------------|-------------------------------| 
--------------------------|--7-6-7-----9-7-9-----10-9-10--| 
--8--7-5-7--5-3-5--3-2-3--|---------0---------0-----------| 
--------------------------|-------------------------------| 
--------------------------|-------------------------------| 
 
 
                                                                              
----------------------------|----------------|------------------------------| 
----------------------------|----------------|------------------------------| 
--12-10-12--10-9-10--9-7-9--|--7-6-7---------|------------------------------| 
----------------------------|---------0--8-7-|--8--7-5-7--5-3-5--3-2-3------| 
----------------------------|----------------|--------------------------7-5-| 
----------------------------|----------------|------------------------------| 
 
 
                                                               
-------------------|--------------------|--------------------| 
-------------------|--------------------|--------------------| 
-------------------|-----------3--------|--2-----------------| 
-------------------|--2--------1--------|--0-----------------| 
--7--5-4-5--4-1-4--|--0-----------------|-----------6--------| 
-------------------|--------------------|-----------4--------| 
 
 
                                
-----------------------------|| 
-----------------------------|| 
------------5----------------|| 
--------7-6-------6-6---6----|| 
----5-8-------8-5-4-4---4----|| 
--5--------------------------|| 
 

	  

No existe una video leccione para esta canción

request
LosAcordes
Buscar
auto avanzar rasgueos aumentar disminuir cambiar color esconder acordes gráficos
losacordes exhibir acordes losacordes youTube video losacordes ocultar tabs losacordes ir hacia arriba losacordes