DC Talk

Início > DC Talk > acordes

Wanna be Loved Tablatura Bajo

DC Talk

Dificultad:Ningún gradoNingún grado

lucicamargo

tuner correct add songbook print version text version salvar en e-mail
acordesukuleletablaturabaixobateríaarmónicaflautacavacopiano Guitar Pro
acordes

Wanna be Loved

Áño: 1998 - Álbum: Supernatural

Tono:  E
	  
Intro 
G|------------------------------------------------| 
D|---------------12-------------------------------| 
A|-----------------10-11-12-12-11-10-10-10/11-----| 
E|12-12-12-11-10------------------------------12/0| 

Verse 
G|-----------------------------------------------------------------| 
D|----------------0-0-12-0-----------------------------------------| 
A|-------------------------10-11-12-0-0-12-0--0-0-12-0--10-10------| 
E|0-0-0-12-0-0-12----------------------------------------------12/0| 

G|--------------------------------------------------------| 
D|--------------------------------------------------------| 
A|--------------------------------------------------5h7--7| 
E|2-2--4-4--5-5---2-2--4-4--4-5-7---2-2--4-4--4-5-7-------| 

Chorus 
G|----------------------------| 
D|----------------------------| 
A|--7-6--6-4--4---------------| 
E|0-------------4-5--5---7-5-5| 

G|-----------------------------------------------------------------| 
D|----------------0-0-12-0-----------------------------------------| 
A|-------------------------10-11-12-0-0-12-0--0-0-12-0--10-10------| 
E|0-0-0-12-0-0-12----------------------------------------------12/0| 

Verse 
G|--------------------------------------------------------------------| 
D|----------------0-0-12-0--------------------------------------------| 
A|--------------------------10-11-12-0-0-12-0--0-0-12-0--10-10--------| 
E|0-0-0-12-0-0-12----------------------------------------------12/0|--| 

G|--------------------------------------------------------| 
D|--------------------------------------------------------| 
A|--------------------------------------------------5h7--7| 
E|2-2--4-4--5-5---2-2--4-4--4-5-7---2-2--4-4--4-5-7-------| 

Chorus 
G|----------------------------| 
D|----------------------------| 
A|--7-6--6-4--4---------------| 
E|0-------------4-5--5---7-5-5| 

G|-----------------------------------------| 
D|-----------------------------------------| 
A|--------------7-6--6-4--4----------------| 
E|0-0-12--10--0-------------4-5--5---7-5-5-| 

G|-----------------------------------------| 
D|-----------------------------------------| 
A|------------------------------------7---9| 
E|2-2--4-4--4-5-7-7---2-2--4-4--4-5-7---7--| 

Chorus 2 
G|----------------------------| 
D|----------------------------| 
A|--9-8--8-6--6---------------| 
E|2-------------6-7--7---9-7-7| 

Ending Verse 
G|----------------------------| 
D|----------------------------| 
A|9-9-8-9---------------------| 
E|-------9-7-5-2--7-7-5-7-5-2-| 



************************************ 

| /  Slide up 
| h  Hammer-on 

************************************ 
	  

No existe una video leccione para esta canción

request
LosAcordes
Buscar
auto avanzar rasgueos aumentar disminuir cambiar color esconder acordes gráficos
losacordes exhibir acordes losacordes youTube video losacordes ocultar tabs losacordes ir hacia arriba losacordes