Disidente

Início > Disidente > acordes

Gris Teclado

Disidente

Dificultad:ExpertoExperto

LINEKERS

tuner correct add songbook print version text version salvar en e-mail
acordesukuleletablaturabajobateríaarmónicaflautacavacopiano Guitar Pro
acordes

Gris

	  ......INTRO: 

GUITARRA 1 
-12---12------11---11------12---12--------7---7--------- 
---14---14-----12---12-------14---14?---9---9----------- 
-------------------------------------------------------- 
-------------------------------------------------------- 
-------------------------------------------------------- 
-------------------------------------------------------- 

   C#m           B           A             E   GUITARRA 2 



GUITARRA 1 
-12---12--------7---7---------9--8----------------------- 
---14---14----9---9--------10--------------------------- 
-------------------------------------------------------- 
-------------------------------------------------------- 
-------------------------------------------------------- 
-------------------------------------------------------- 

    A            E        F#m   A         E GUITARRA 2 

SE REPITE 2 VECES EL INTRO 


C#m    E  A     E  
 Sabes ignorar, 

C#m   E A    E  
es tu imitación 

C#m   E A    E  
sabes, lastimar 

C#m   E A    E  
es tu convicción 



*NOTA 
AQUI LA GUITARRA 1  HACE EL INTRO 

coro 

C#m   B    A           E  
Construí un templo para tí, 

 A            E 
con algo para mí 

 F#m   A    E  
y todo lo demás..... 

 F#m   A    E  
y todo lo demás..... 


Sabes escuchar, 
es tu invitación 
sabes descifrar, 
es tu deducción 

coro 

Construí un templo para tí, 
un algo para mí 
y todo lo demás..... 
y todo lo demás 

E 
llegar al cielo y todo es gris....llegar al cielo. 

 F#m   A     B  
y todo lo demás 

*NOTA 
EN LA PARTE QUE SIGUE LA GUITARRA 1  SE QUEDA PISANDO LA MISMA NOTA CORCHENDOLA 

CUERDA  G SOL--4-4-4-4-4-4-4-4-4-4-4-4-4-4-4-4-4-4-4-4-4-4-4-4-4-4-4- 


A       C#m   E           B A  C#m   E  
 Todo es gris     y lo demás.... 

B      A          C#m            E  
 Separarme de tu espacio, es tan frágil lo demás 

B      A          C#m             E  
 despedirme de tu espacio, es tan frágil lo demás 

  B  
Y no no es para tí, no no es para tí 

A 
no no es para tí, no no es para ti 

C#m 
no no es para tí, no no es para ti 

 E  
no no no no no no no no no no no no..... 

 F#m  A    E  
y todo lo demás. 
	  

No existe una video leccione para esta canción

request
Aumentar uno tonoAumentar uno tono
Aumentar uno semi-tonoAumentar uno semi-tono
Disminuir uno semi-tonoDisminuir uno semi-tono
Disminuir uno tonoDisminuir uno semi-tono
LosAcordes
Buscar
auto avanzar rasgueos aumentar disminuir cambiar color
losacordes exhibir acordes losacordes youTube video losacordes ocultar tabs losacordes ir hacia arriba losacordes