Disidente

Início > Disidente > acordes

Gris Tablatura

Disidente

Dificultad:Ningún gradoNingún grado

gustsilva

tuner correct add songbook print version text version salvar en e-mail
acordesukuleletablaturabajobateríaarmónicaflautacavacopiano Guitar Pro
acordes

Gris

	  intro 

  -------4-------0-------0---2------------------------------- 
  ---4---6---0---2---0---2---4---0----------------------------- 
  ---6---6---2---2---2---2---4---2----------------------------- 
  ---6---4---2---1---2---1---2---2----------------------------- 
  ---5---4---2---0---2---0---2---1----------------------------- 
  ---4---4---0---0---0---0---2---0----------------------------- 


  ----0----0----0------------------------------------- 
  ----2----2----2------------------------------------- 
  ----2----2----2------------------------------------- 
  ----1----1----1------------------------------------- 
  ----0----2----0----------------------------------- 
  ----0----0----0------------------------------------ 

letra 


  ----------0---------0----------------------------------- 
  -----4----2----0----2----------------------------------- 
  -----6----2----2----2----------------------------------- 
  -----6----1----2----1----------------------------------- 
  -----5----0----2----0----------------------------------- 
  -----4----0----0----0----------------------------------- 

  


letra 

  -------4-------0-------0---2------------------------------- 
  ---4---6---0---2---0---2---4---0----------------------------- 
  ---6---6---2---2---2---2---4---2----------------------------- 
  ---6---4---2---1---2---1---2---2----------------------------- 
  ---5---4---2---0---2---0---2---1----------------------------- 
  ---4---4---0---0---0---0---2---0----------------------------- 




   
  ----0----0----0------------------------------------- 
  ----2----2----2-------0----------------------------- 
  ----2----2----2-------2----------------------------- 
  ----1----1----1-------2----------------------------- 
  ----0----2----0-------1--------------------------- 
  ----0----0----0-------0---------------------------- 





  ----0----0----0------------------------------------- 
  ----2----2----2------------------------------------- 
  ----2----2----2------------------------------------- 
  ----1----1----1------------------------------------- 
  ----0----2----0----------------------------------- 
  ----0----0----0------------------------------------ 



letra 

  ----------0---------0----------------------------------- 
  -----4----2----0----2----------------------------------- 
  -----6----2----2----2----------------------------------- 
  -----6----1----2----1----------------------------------- 
  -----5----0----2----0----------------------------------- 
  -----4----0----0----0----------------------------------- 



coro 


  -------4-------0-------0---2------------------------------- 
  ---4---6---0---2---0---2---4---0----------------------------- 
  ---6---6---2---2---2---2---4---2----------------------------- 
  ---6---4---2---1---2---1---2---2----------------------------- 
  ---5---4---2---0---2---0---2---1----------------------------- 
  ---4---4---0---0---0---0---2---0----------------------------- 



  coro 


  ----0----0----0------------------------------------- 
  ----2----2----2------------------------------------- 
  ----2----2----2------------------------------------- 
  ----1----1----1------------------------------------- 
  ----0----2----0----------------------------------- 
  ----0----0----0------------------------------------ 


coro 



   -----2-------------------------------------------- 
   -----4----0--------------------------------------- 
   -----4----2--------------------------------------- 
   -----2----2--------------------------------------- 
   -----2----1--------------------------------------- 
   -----2----0--------------------------------------- 


coro 


  ----0----0----0------------------------------------- 
  ----2----2----2------------------------------------- 
  ----2----2----2------------------------------------- 
  ----1----1----1------------------------------------- 
  ----0----2----0----------------------------------- 
  ----0----0----0------------------------------------ 


coro 

   -------------------------------------------------- 
   ----0--------------------------------------------- 
   ----2--------------------------------------------- 
   ----2--------------------------------------------- 
   ----1--------------------------------------------- 
   ----0--------------------------------------------- 



    coro 2 

   ---x-x------------------0-0----------------------- 
   ---2-2----0-0----4-4----2-2---------------------- 
   ---4-4----2-2----6-6----2-2---------------------- 
   ---4-4----2-2----6-6----1-2---------------------- 
   ----------2-2------------------------------------ 
   -------------------------------------------------- 


  Final 


   -----2----------0-------------------------------- 
   -----4----0-----2-------------------------------- 
   -----4----2-----2--------------------------------- 
   -----2----2-----1--------------------------------- 
   -----2----1-----0--------------------------------- 
   -----2----0-----0--------------------------------- 
	  

No existe una video leccione para esta canción

request
LosAcordes
Buscar
auto avanzar rasgueos aumentar disminuir cambiar color esconder acordes gráficos
losacordes exhibir acordes losacordes youTube video losacordes ocultar tabs losacordes ir hacia arriba losacordes