Yeah Yeah Yeahs

Início > Yeah Yeah ... > acordes

Mysteries Tablatura

Yeah Yeah Yeahs

Dificultad:Ningún gradoNingún grado

europeu

tuner correct add songbook print version text version salvar en e-mail
acordesukuleletablaturabajobateríaarmónicaflautacavacopiano Guitar Pro
acordes

Mysteries

	  Intro:      Am          E         D 
          EADGBE      EADGBE    EADGBE 
          577655      022100    xx0232 
 
Verse:      A          E         D 
          EADGBE      EADGBE    EADGBE 
          577655      022100    xx0232 
 
Chorus:     B           D3        E5 
          EADGBE      EADGBE    EADGBE 
          x21xxx      x54xxx    x76xxx 
 
Intro: (strumming is simple up and down quite quickly all the time 
       (halfbeats i think)for intro and verses) 
A             E   D   E 
 
Verse 1: 
A 
My arms are all twisted 
E 
The only thing I miss is 
D              E 
I messed up I missed it, 
A 
I messed up, the missing of you 
A                           E                          D     E    A 
It's getting to sound like they?ve seen you around with her 
 
Chorus: 
B          D3 
No mystery 
B         E5 
No mystery 
D         D3 
No mysteries 
 
Verse 2: 
A                  E         D    E   A 
Everyone knows the secretest code of mine 
A                                  E               D     E   A 
They'll tell all my friends and they'll tell all my enemies too 
 
Chorus: 
B       D3 
Mystery 
B        E5 
No mysteries 
B        D3 
No mysteries 
 
B          D3 
No mystery 
B          E5 
No mystery 
B          D3 
No mysteries 
 
Take it away, Nick! 
 
Solo:(now I'm not sure about this, it is all tremolo picking though) 
E--------|---------------|--------------|---------------|---------| 
B55555555|7-9999999999999|7-555555555555|7-9999999999999|7-999999-| 
G--------|---------------|--------------|---------------|---------| 
D--------|---------------|--------------|---------------|---------| 
A--------|---------------|--------------|---------------|---------| 
E--------|---------------|--------------|---------------|---------| 
                          (\/some crazy sounding slide) 
E--------|---------------|--------------|---------------|--------| 
B11111111|1212121212121212-1414141414141\---------------|--------| 
G--------|---------------|--------------|---------------|--------| 
D--------|---------------|--------------|---------------|--------| 
A--------|---------------|--------------|---------------|--------| 
E--------|---------------|--------------|---------------|--------| 
 
Verse 3: 
A                             E                          D  E   A 
Well I don't even know what it's like not to go back to you 
A                    E         D    E  A 
I don't even know who I like less 
 
A          B        D3   B       E5   (then our verse A E D E A once more) 
You or me, you or me, you or me oooh 
 
(Now it gets really mental and i dont have a clue, at best guest it uses barred A (at  
5th fret of E), barred D and E on the A string and that 
really high note/chord is something like xx15151515. (But i think) 
 
(These might barred on the A string played as normal major barres) 
B            D3     B         E5 
Well it's anyone's, anyone's guess 
B            D3           E5 
It's anyone's, anyone's guess 
 
(and then) 
Stress, stress, stress, twist, stress, stress, stress, stress, stress 
 (strokes \/ /\ etc) 
E---------5\12----5\15-----| 
B---------5\12----5\15-----| 
G---------6\12----6\15-----| 
D---------7\12----7\15-----| (x as required) 
A---------7\12----7\15-----| 
E---------5\x-----5\x------| 
 
Outro (again possibly wrong) 
 (builds up in volume) 
E--000000000000000000000000000-5\---| 
B--000000000000000000000000000-5\---| 
G--111111111111111111111111111-6\---| 
D--222222222222222222222222222-7\---| 
A--222222222222222222222222222-7\---| 
E--000000000000000000000000000-5\---| 
 

	  

No existe una video leccione para esta canción

request
LosAcordes
Buscar
auto avanzar rasgueos aumentar disminuir cambiar color esconder acordes gráficos
losacordes exhibir acordes losacordes youTube video losacordes ocultar tabs losacordes ir hacia arriba losacordes