Wednesday 13

Início > Wednesday ... > acordes

Serpent Society Tablatura

Wednesday 13

Dificultad:AdelantadoAdelantado

fernsantana

tuner correct add songbook print version text version salvar en e-mail
acordesukuleletablaturabajobateríaarmónicaflautacavacopiano Guitar Pro
acordes

Serpent Society

	  

Intor/Verse 


C#------------------------------------------------------------------- 
G#------------------------------------------------------------------- 
E-------------------------------------------------------------------- 
B----6/8-8-8-8-8-8-8-8-8-8-8-8-8-8-9-8-8-8-8-8-8-8-8-8-8-8-8-8-8-8--- 
F#---6/8-8-8-8-8-8-8-8-8-8-8-8-8-8-9-8-8-8-8-8-8-8-8-8-8-8-8-8-8-8--- 
B----6/8-8-8-8-8-8-8-8-8-8-8-8-8-8-9-8-8-8-8-8-8-8-8-8-8-8-8-8-8-8--- (x6) 


Chorus 


C#----------------------------------------------------- 
G#----------------------------------------------------- 
E------------------------------------------------------ 
B----4-4-4-4-4-4-4-4-4-4-4-4-4-4-4-4-4-4-4-4-6-6-6-6--- 
F#---4-4-4-4-4-4-4-4-4-4-4-4-4-4-4-4-4-4-4-4-6-6-6-6--- 
B----4-4-4-4-4-4-4-4-4-4-4-4-4-4-4-4-4-4-4-4-6-6-6-6--- 

C#------------------------------------------------------------------- 
G#------------------------------------------------------------------- 
E-------------------------------------------------------------------- 
B----6/8-8-8-8-8-8-8-8-8-8-8-8-8-8-9-8-8-8-8-8-8-8-8-8-8-8-8-8-8-8--- 
F#---6/8-8-8-8-8-8-8-8-8-8-8-8-8-8-9-8-8-8-8-8-8-8-8-8-8-8-8-8-8-8--- 
B----6/8-8-8-8-8-8-8-8-8-8-8-8-8-8-9-8-8-8-8-8-8-8-8-8-8-8-8-8-8-8--- 

C#----------------------------------------------------- 
G#----------------------------------------------------- 
E------------------------------------------------------ 
B----4-4-4-4-4-4-4-4-4-4-4-4-4-4-4-4-4-4-4-4-6-6-6-6--- 
F#---4-4-4-4-4-4-4-4-4-4-4-4-4-4-4-4-4-4-4-4-6-6-6-6--- 
B----4-4-4-4-4-4-4-4-4-4-4-4-4-4-4-4-4-4-4-4-6-6-6-6--- 

C#----------------------------------------------------- 
G#------------------------------------------------------ 
E------------------------------------------------------- 
B----3-3-3-3-3-3-3-3-3-3-3-3-3-3-3-3-3-3-3-3--6-6-6-6--- 
F#---3-3-3-3-3-3-3-3-3-3-3-3-3-3-3-3-3-3-3-3--6-6-6-6--- 
B----3-3-3-3-3-3-3-3-3-3-3-3-3-3-3-3-3-3-3-3--6-6-6-6--- 

                                            They rule you.... 

C#----------------------------------------------------------------------------- 
G#----------------------------------------------------------------------------- 
E------------------------------------------------------------------------------ 
B----6/8-8-8-8-8-8-8-8-8-8-8-8-8-8-9-8-8-8-8-11-11-11-11-10-10-10-10-9-9-9-9--- 
F#---6/8-8-8-8-8-8-8-8-8-8-8-8-8-8-9-8-8-8-8-11-11-11-11-10-10-10-10-9-9-9-9--- 
B----6/8-8-8-8-8-8-8-8-8-8-8-8-8-8-9-8-8-8-8-11-11-11-11-10-10-10-10-9-9-9-9--- (4x) 


Bridge 


C#----------------------------- 
G#----------------------------- 
E------------------------------ 
B----0-0--2--3--0-2-3---5/8b--- 
F#---0-0--2--3--0-2-3---------- 
B----0-0--2--3--0-2-3---------- (x3) 
     . .        . 

C#-------------------------------- 
G#-------------------------------- 
E--------------------------------- 
B----0-0--2--3--0-2-3------------- 
F#---0-0--2--3--0-2-3------------- 
B----0-0--2--3--0-2-3---2/1/2/1--- 
     . .        . 


C#----------------------------- 
G#----------------------------- 
E------------------------------ 
B----0-0--2--3--0-2-3---5/8b--- 
F#---0-0--2--3--0-2-3---------- 
B----0-0--2--3--0-2-3---------- (x3) 
     . .        . 

C#-------------------------------- 
G#-------------------------------- 
E--------------------------------- 
B----0-0--2--3--0-2-3------------- 
F#---0-0--2--3--0-2-3------------- 
B----0-0--2--3--0-2-3---2/1/2/1--- 
     . .        . 


C#----------------------------- 
G#----------------------------- 
E------------------------------ 
B----0-0--2--3--0-2-3---5/8b--- 
F#---0-0--2--3--0-2-3---------- 
B----0-0--2--3--0-2-3---------- (x3) 
     . .        . 

C#-------------------------------- 
G#-------------------------------- 
E--------------------------------- 
B----0-0--2--3--0-2-3------------- 
F#---0-0--2--3--0-2-3------------- 
B----0-0--2--3--0-2-3---2/1/2/1--- 
     . .        . 


Chorus 


C#----------------------------------------------------- 
G#----------------------------------------------------- 
E------------------------------------------------------ 
B----4-4-4-4-4-4-4-4-4-4-4-4-4-4-4-4-4-4-4-4-6-6-6-6--- 
F#---4-4-4-4-4-4-4-4-4-4-4-4-4-4-4-4-4-4-4-4-6-6-6-6--- 
B----4-4-4-4-4-4-4-4-4-4-4-4-4-4-4-4-4-4-4-4-6-6-6-6--- 

C#------------------------------------------------------------------- 
G#------------------------------------------------------------------- 
E-------------------------------------------------------------------- 
B----6/8-8-8-8-8-8-8-8-8-8-8-8-8-8-9-8-8-8-8-8-8-8-8-8-8-8-8-8-8-8--- 
F#---6/8-8-8-8-8-8-8-8-8-8-8-8-8-8-9-8-8-8-8-8-8-8-8-8-8-8-8-8-8-8--- 
B----6/8-8-8-8-8-8-8-8-8-8-8-8-8-8-9-8-8-8-8-8-8-8-8-8-8-8-8-8-8-8--- 

C#----------------------------------------------------- 
G#----------------------------------------------------- 
E------------------------------------------------------ 
B----4-4-4-4-4-4-4-4-4-4-4-4-4-4-4-4-4-4-4-4-6-6-6-6--- 
F#---4-4-4-4-4-4-4-4-4-4-4-4-4-4-4-4-4-4-4-4-6-6-6-6--- 
B----4-4-4-4-4-4-4-4-4-4-4-4-4-4-4-4-4-4-4-4-6-6-6-6--- 

C#----------------------------------------------------- 
G#------------------------------------------------------ 
E------------------------------------------------------- 
B----3-3-3-3-3-3-3-3-3-3-3-3-3-3-3-3-3-3-3-3--6-6-6-6--- 
F#---3-3-3-3-3-3-3-3-3-3-3-3-3-3-3-3-3-3-3-3--6-6-6-6--- 
B----3-3-3-3-3-3-3-3-3-3-3-3-3-3-3-3-3-3-3-3--6-6-6-6--- 

                                            They rule you.... 

C#----------------------------------------------------------------------------- 
G#----------------------------------------------------------------------------- 
E------------------------------------------------------------------------------ 
B----6/8-8-8-8-8-8-8-8-8-8-8-8-8-8-9-8-8-8-8-11-11-11-11-10-10-10-10-9-9-9-9--- 
F#---6/8-8-8-8-8-8-8-8-8-8-8-8-8-8-9-8-8-8-8-11-11-11-11-10-10-10-10-9-9-9-9--- 
B----6/8-8-8-8-8-8-8-8-8-8-8-8-8-8-9-8-8-8-8-11-11-11-11-10-10-10-10-9-9-9-9--- (4x) 
	  

No existe una video leccione para esta canción

request
LosAcordes
Buscar
auto avanzar rasgueos aumentar disminuir cambiar color esconder acordes gráficos
losacordes exhibir acordes losacordes youTube video losacordes ocultar tabs losacordes ir hacia arriba losacordes