Wednesday 13

Início > Wednesday ... > acordes

Save The Last Grave Tablatura

Wednesday 13

Dificultad:Ningún gradoNingún grado

deivcavalcanti

tuner correct add songbook print version text version salvar en e-mail
acordesukuleletablaturabajobateríaarmónicaflautacavacopiano Guitar Pro
acordes

Save The Last Grave

	  This tab is made by LivingDead31. 

The song is from the "Dead Meat" Home Sweet Demo-cide Vol.2 


Intro 


D----------------------------------------------------------- 
A----------------------------------------------------------- 
F-------------------------7-7--6-6--4-4----4-2-2------------ 
C---2-2-2-2----7-7-7-7----7-7--6-6--4-4----4-2-2--2-2-2-2--- 
G---2-2-2-2----7-7-7-7----5-5--4-4--2-2----2-0-0--2-2-2-2--- 
C---2-2-2-2----7-7-7-7----------------------------2-2-2-2--- 


D------------------------------------------------ 
A------------------------------------------------ 
F--------------7-7--6-6--4-4----4-2-2------------ 
C---7-7-7-7----7-7--6-6--4-4----4-2-2--2-2-2-2--- 
G---7-7-7-7----5-5--4-4--2-2----2-0-0--2-2-2-2--- 
C---7-7-7-7----------------------------2-2-2-2--- 


Verse 


D--------------------------------------------------------- 
A--------------------------------------------------------- 
F-----------------------------7-7--6-6--4-4-4-4-4-4-4-2--- 
C---2-2-2-2--7-7-7-7-7-7-7-7--7-7--6-6--4-4-4-4-4-4-4-2--- 
G---2-2-2-2--7-7-7-7-7-7-7-7--5-5--4-4--2-2-2-2-2-2-2-0--- 
C---2-2-2-2--7-7-7-7-7-7-7-7------------------------------ 



D----------------------------------------------------------------- 
A----------------------------------------------------------------- 
F-------------------------------------7-7--6-6--4-4-4-4-4-4-4-2--- 
C---2-2-2-2-2-2-2-2--7-7-7-7-7-7-7-7--7-7--6-6--4-4-4-4-4-4-4-2--- 
G---2-2-2-2-2-2-2-2--7-7-7-7-7-7-7-7--5-5--4-4--2-2-2-2-2-2-2-0--- 
C---2-2-2-2-2-2-2-2--7-7-7-7-7-7-7-7------------------------------ 


Pre-Chorus 

  When the moonlight... 

D---------------------------------------------------------------------- 
A---------------------------------------------------------------------- 
F---------------------------------------------------------------------- 
C---7-7-7-7-7-7-7-7-7-7-7-7-7-7-7-7--2-2-2-2-2-2-2-2-2-2-2-2-2-2-2-2--- 
G---7-7-7-7-7-7-7-7-7-7-7-7-7-7-7-7--2-2-2-2-2-2-2-2-2-2-2-2-2-2-2-2--- 
C---7-7-7-7-7-7-7-7-7-7-7-7-7-7-7-7--2-2-2-2-2-2-2-2-2-2-2-2-2-2-2-2--- 



D----------------------------------------------------------------------- 
A----------------------------------------------------------------------- 
F----------------------------------------------------------------------- 
C---7-7-7-7-7-7-7-7-7-7-7-7-7-7-7-7--9-9-9-9-9-9-9-9--9-9-9-9-7-7-7-7--- 
G---7-7-7-7-7-7-7-7-7-7-7-7-7-7-7-7--9-9-9-9-9-9-9-9--9-9-9-9-7-7-7-7--- 
C---7-7-7-7-7-7-7-7-7-7-7-7-7-7-7-7--9-9-9-9-9-9-9-9--9-9-9-9-7-7-7-7--- 


Chorus 


D----------------------------------------------------------------- 
A----------------------------------------------------------------- 
F-------------------------------------7-7--6-6--4-4-4-4-4-4-4-2--- 
C---2-2-2-2-2-2-2-2--7-7-7-7-7-7-7-7--7-7--6-6--4-4-4-4-4-4-4-2--- 
G---2-2-2-2-2-2-2-2--7-7-7-7-7-7-7-7--5-5--4-4--2-2-2-2-2-2-2-0--- 
C---2-2-2-2-2-2-2-2--7-7-7-7-7-7-7-7------------------------------ 


D----------------------------------------------------------------- 
A----------------------------------------------------------------- 
F-------------------------------------7-7--6-6--4-4-4-4-4-4-4-2--- 
C---2-2-2-2-2-2-2-2--7-7-7-7-7-7-7-7--7-7--6-6--4-4-4-4-4-4-4-2--- 
G---2-2-2-2-2-2-2-2--7-7-7-7-7-7-7-7--5-5--4-4--2-2-2-2-2-2-2-0--- 
C---2-2-2-2-2-2-2-2--7-7-7-7-7-7-7-7------------------------------ 


Outro 


D----------------------------------------------------------- 
A----------------------------------------------------------- 
F-------------------------7-7--6-6--4-4----4-2-2------------ 
C---2-2-2-2----7-7-7-7----7-7--6-6--4-4----4-2-2--2-2-2-2--- 
G---2-2-2-2----7-7-7-7----5-5--4-4--2-2----2-0-0--2-2-2-2--- 
C---2-2-2-2----7-7-7-7----------------------------2-2-2-2--- 


D------------------------------ 
A------------------------------ 
F--------------7-7--6-6--4-4--- 
C---7-7-7-7----7-7--6-6--4-4--- 
G---7-7-7-7----5-5--4-4--2-2--- 
C---7-7-7-7-------------------- 
	  

No existe una video leccione para esta canción

request
LosAcordes
Buscar
auto avanzar rasgueos aumentar disminuir cambiar color esconder acordes gráficos
losacordes exhibir acordes losacordes youTube video losacordes ocultar tabs losacordes ir hacia arriba losacordes