Wednesday 13

Início > Wednesday ... > acordes

Morgue Than Words (acoustic) Tablatura

Wednesday 13

Dificultad:Ningún gradoNingún grado

edsooliveira

tuner correct add songbook print version text version salvar en e-mail
acordesukuleletablaturabajobateríaarmónicaflautacavacopiano Guitar Pro
acordes

Morgue Than Words (acoustic)

	  

Intro/Bridge 


D-------------------------------------------------------------------------------- 
A-------------------------------------------------------------------------------- 
F---5-5-5--5---5--5-5-5--5---5--5-5-5--5---5--5-5-5--5---5--5-5-5--5---5--5-5-5-- 
C---5-5-5--5---5--5-5-5--5---5--5-5-5--5---5--5-5-5--5---5--5-5-5--5---5--5-5-5-- 
G---3-3-3--3---3--3-3-3--3---3--3-3-3--3---3--3-3-3--3---3--3-3-3--3---3--3-3-3-- 
C-------------------------------------------------------------------------------- 


D---------------------------------- 
A---------------------------------- 
F---5---5--5-5-5--5---5--5-5-5--5-- 
C---5---5--5-5-5--5---5--5-5-5--5-- 
G---3---3--3-3-3--3---3--3-3-3--3-- 
C---------------------------------- 


Verse 


D------------------------------- 
A------------------------------- 
F---5---5--5-5-5--5---5--5-5-5-- 
C---5---5--5-5-5--5---5--5-5-5-- 
G---3---3--3-3-3--3---3--3-3-3-- 
C------------------------------- 

D--------------------------------------------------------------------------------------- 
A--------------------------------------------------------------------------------------- 
F--------------------------------------------------------------------------------------- 
C---5---5--5-5-5--5---5--5-5-5--7---7--7-7-7--7---7--7-7-7--3---3--3-3-3--3---3--3-3-3-- 
G---5---5--5-5-5--5---5--5-5-5--7---7--7-7-7--7---7--7-7-7--3---3--3-3-3--3---3--3-3-3-- 
C---5---5--5-5-5--5---5--5-5-5--7---7--7-7-7--7---7--7-7-7--3---3--3-3-3--3---3--3-3-3-- (x2) 


Pre-Chorus 


D------------------------------- 
A------------------------------- 
F---5---5--5-5-5--5---5--5-5-5-- 
C---5---5--5-5-5--5---5--5-5-5-- 
G---3---3--3-3-3--3---3--3-3-3-- 
C------------------------------- 

D--------------------------------------------------------------------------------------- 
A--------------------------------------------------------------------------------------- 
F--------------------------------------------------------------------------------------- 
C---5---5--5-5-5--5---5--5-5-5--7---7--7-7-7--7---7--7-7-7--3---3--3-3-3--3---3--3-3-3-- 
G---5---5--5-5-5--5---5--5-5-5--7---7--7-7-7--7---7--7-7-7--3---3--3-3-3--3---3--3-3-3-- 
C---5---5--5-5-5--5---5--5-5-5--7---7--7-7-7--7---7--7-7-7--3---3--3-3-3--3---3--3-3-3-- (x2) 


Chorus 


D------------------------------- 
A------------------------------- 
F---5---5--5-5-5--5---5--5-5-5-- 
C---5---5--5-5-5--5---5--5-5-5-- 
G---3---3--3-3-3--3---3--3-3-3-- 
C------------------------------- 

D--------------------------------------------------------------------------------------- 
A--------------------------------------------------------------------------------------- 
F--------------------------------------------------------------------------------------- 
C---5---5--5-5-5--5---5--5-5-5--7---7--7-7-7--7---7--7-7-7--3---3--3-3-3--3---3--3-3-3-- 
G---5---5--5-5-5--5---5--5-5-5--7---7--7-7-7--7---7--7-7-7--3---3--3-3-3--3---3--3-3-3-- 
C---5---5--5-5-5--5---5--5-5-5--7---7--7-7-7--7---7--7-7-7--3---3--3-3-3--3---3--3-3-3-- (x2) 
	  

No existe una video leccione para esta canción

request
LosAcordes
Buscar
auto avanzar rasgueos aumentar disminuir cambiar color esconder acordes gráficos
losacordes exhibir acordes losacordes youTube video losacordes ocultar tabs losacordes ir hacia arriba losacordes