Wednesday 13

Início > Wednesday ... > acordes

Ghost Stories (acoustic) Tablatura

Wednesday 13

Dificultad:Ningún gradoNingún grado

carlluz

tuner correct add songbook print version text version salvar en e-mail
acordesukuleletablaturabajobateríaarmónicaflautacavacopiano Guitar Pro
acordes

Ghost Stories (acoustic)

	  This tab is made by LivingDead31 

The songs is from the Undead Unplugged album. 


Intro 


D-------------------------- 
A---11-------14-------7---- 
F---11-------14-------7---- 
C---9--------12-------5---- 
G-------------------------- 
C-------------------------- (x2) 


Verse 


D-------------------------- 
A---11-------14-------7---- 
F---11-------14-------7---- 
C---9--------12-------5---- 
G-------------------------- 
C-------------------------- (x4) 


Chorus 



D--------------------------------------------------- 
A---11---11-11---11-11-11---14---14-14---14-14-14--- 
F---11---11-11---11-11-11---14---14-14---14-14-14--- 
C---9----9--9----9--9--9----12---12-12---12-12-12--- 
G--------------------------------------------------- 
C--------------------------------------------------- 


D-------2/3/2-0--2--0-2/3h5-0--- 
A---7--------------------------- 
F---7--------------------------- 
C---5--------------------------- 
G------------------------------- 
C------------------------------- (x6) 


Verse 



D-------------------------- 
A---11-------14-------7---- 
F---11-------14-------7---- 
C---9--------12-------5---- 
G-------------------------- 
C-------------------------- (x4) 



Chorus 



D--------------------------------------------------- 
A---11---11-11---11-11-11---14---14-14---14-14-14--- 
F---11---11-11---11-11-11---14---14-14---14-14-14--- 
C---9----9--9----9--9--9----12---12-12---12-12-12--- 
G--------------------------------------------------- 
C--------------------------------------------------- 


D-------2/3/2-0--2--0-2/3h5-0--- 
A---7--------------------------- 
F---7--------------------------- 
C---5--------------------------- 
G------------------------------- 
C------------------------------- (x6) 



Verse 



D-------------------------- 
A---11-------14-------7---- 
F---11-------14-------7---- 
C---9--------12-------5---- 
G-------------------------- 
C-------------------------- (x2) 



Chorus 



D--------------------------------------------------- 
A---11---11-11---11-11-11---14---14-14---14-14-14--- 
F---11---11-11---11-11-11---14---14-14---14-14-14--- 
C---9----9--9----9--9--9----12---12-12---12-12-12--- 
G--------------------------------------------------- 
C--------------------------------------------------- 


D-------2/3/2-0--2--0-2/3h5-0--- 
A---7--------------------------- 
F---7--------------------------- 
C---5--------------------------- 
G------------------------------- 
C------------------------------- (x4) 



Outro 



D-------------------------- 
A---11-------14-------7---- 
F---11-------14-------7---- 
C---9--------12-------5---- 
G-------------------------- 
C-------------------------- (x2)  
	  

No existe una video leccione para esta canción

request
LosAcordes
Buscar
auto avanzar rasgueos aumentar disminuir cambiar color esconder acordes gráficos
losacordes exhibir acordes losacordes youTube video losacordes ocultar tabs losacordes ir hacia arriba losacordes