Wednesday 13

Início > Wednesday ... > acordes

Astro Psycho Galactic Blood Drive Tablatura

Wednesday 13

Dificultad:Ningún gradoNingún grado

IronPower4Ever

tuner correct add songbook print version text version salvar en e-mail
acordesukuleletablaturabajobateríaarmónicaflautacavacopiano Guitar Pro
acordes

Astro Psycho Galactic Blood Drive

	  This tab is created by Living Dead 31. The song is from the "Monsters of the Universe" album. 



Intro 

D----------- 
F----------- 
A----------- 
C---6---5--- 
G---6---5--- 
C---6---5--- 


Verse 


D-------------------------------------------------------------------------- 
F-------------------------------------------------------------------------- 
A-------------------------------------------------------------------------- 
C----------------0---------------0---------------0---------------5/7/5/8--- 
G----------------0---------------0---------------0---------------3/5/3/6--- 
C---0-0-000-0-0--0--0-0-000-0-0--0--0-0-000-0-0--0--0-0-000-0-0------------ 
    . . ... . .     . . ... . .     . . ... . .     . . ... . .     

D----------------------------------------------------------- 
F----------------------------------------------------------- 
A----------------------------------------------------------- 
C----------------0---------------0---------------0--6---5--- 
G----------------0---------------0---------------0--6---5--- 
C---0-0-000-0-0--0--0-0-000-0-0--0--0-0-000-0-0--0--6---5--- (x2) 
    . . ... . .     . . ... . .     . . ... . . 


Pre-Chorus 


Are you ready for this... 

D---------------------------------------------------------- 
F---------------------------------------------------------- 
A---------------------------------------------------------- 
C---8-8-8-8-8-8-8-8-8-8-8-8-8-8-8-8-7-7-7-7-7-7-7-7-6--5--- 
G---8-8-8-8-8-8-8-8-8-8-8-8-8-8-8-8-7-7-7-7-7-7-7-7-6--5--- 
C---8-8-8-8-8-8-8-8-8-8-8-8-8-8-8-8-7-7-7-7-7-7-7-7-6--5--- 



Chorus 


D-------------------------------------------------------------------------- 
F-------------------------------------------------------------------------- 
A-------------------------------------------------------------------------- 
C----------------0---------------0---------------0---------------5/7/5/8--- 
G----------------0---------------0---------------0---------------3/5/3/6--- 
C---0-0-000-0-0--0--0-0-000-0-0--0--0-0-000-0-0--0--0-0-000-0-0------------ 
    . . ... . .     . . ... . .     . . ... . .     . . ... . .     

D----------------------------------------------------------- 
F----------------------------------------------------------- 
A----------------------------------------------------------- 
C----------------0---------------0---------------0--6---5--- 
G----------------0---------------0---------------0--6---5--- 
C---0-0-000-0-0--0--0-0-000-0-0--0--0-0-000-0-0--0--6---5--- 
    . . ... . .     . . ... . .     . . ... . . 


Verse 


D-------------------------------------------------------------------------- 
F-------------------------------------------------------------------------- 
A-------------------------------------------------------------------------- 
C----------------0---------------0---------------0---------------5/7/5/8--- 
G----------------0---------------0---------------0---------------3/5/3/6--- 
C---0-0-000-0-0--0--0-0-000-0-0--0--0-0-000-0-0--0--0-0-000-0-0------------ 
    . . ... . .     . . ... . .     . . ... . .     . . ... . .     

D----------------------------------------------------------- 
F----------------------------------------------------------- 
A----------------------------------------------------------- 
C----------------0---------------0---------------0--6---5--- 
G----------------0---------------0---------------0--6---5--- 
C---0-0-000-0-0--0--0-0-000-0-0--0--0-0-000-0-0--0--6---5--- (x2) 
    . . ... . .     . . ... . .     . . ... . . 


Pre-Chorus 


Are you ready for this... 

D---------------------------------------------------------- 
F---------------------------------------------------------- 
A---------------------------------------------------------- 
C---8-8-8-8-8-8-8-8-8-8-8-8-8-8-8-8-7-7-7-7-7-7-7-7-6--5--- 
G---8-8-8-8-8-8-8-8-8-8-8-8-8-8-8-8-7-7-7-7-7-7-7-7-6--5--- 
C---8-8-8-8-8-8-8-8-8-8-8-8-8-8-8-8-7-7-7-7-7-7-7-7-6--5--- 



Chorus 



D-------------------------------------------------------------------------- 
F-------------------------------------------------------------------------- 
A-------------------------------------------------------------------------- 
C----------------0---------------0---------------0---------------5/7/5/8--- 
G----------------0---------------0---------------0---------------3/5/3/6--- 
C---0-0-000-0-0--0--0-0-000-0-0--0--0-0-000-0-0--0--0-0-000-0-0------------ 
    . . ... . .     . . ... . .     . . ... . .     . . ... . .     

D----------------------------------------------------------- 
F----------------------------------------------------------- 
A----------------------------------------------------------- 
C----------------0---------------0---------------0--6---5--- 
G----------------0---------------0---------------0--6---5--- 
C---0-0-000-0-0--0--0-0-000-0-0--0--0-0-000-0-0--0--6---5--- 
    . . ... . .     . . ... . .     . . ... . . 



Verse - Under Solo 


D-------------------------------------------------------------------------- 
F-------------------------------------------------------------------------- 
A-------------------------------------------------------------------------- 
C----------------0---------------0---------------0---------------5/7/5/8--- 
G----------------0---------------0---------------0---------------3/5/3/6--- 
C---0-0-000-0-0--0--0-0-000-0-0--0--0-0-000-0-0--0--0-0-000-0-0------------ 
    . . ... . .     . . ... . .     . . ... . .     . . ... . .     

D----------------------------------------------------------- 
F----------------------------------------------------------- 
A----------------------------------------------------------- 
C----------------0---------------0---------------0--6---5--- 
G----------------0---------------0---------------0--6---5--- 
C---0-0-000-0-0--0--0-0-000-0-0--0--0-0-000-0-0--0--6---5--- 
    . . ... . .     . . ... . .     . . ... . . 


Pre-Chorus 



Are you ready for this... 

D---------------------------------------------------------- 
F---------------------------------------------------------- 
A---------------------------------------------------------- 
C---8-8-8-8-8-8-8-8-8-8-8-8-8-8-8-8-7-7-7-7-7-7-7-7-6--5--- 
G---8-8-8-8-8-8-8-8-8-8-8-8-8-8-8-8-7-7-7-7-7-7-7-7-6--5--- 
C---8-8-8-8-8-8-8-8-8-8-8-8-8-8-8-8-7-7-7-7-7-7-7-7-6--5--- 


Chorus 


D-------------------------------------------------------------------------- 
F-------------------------------------------------------------------------- 
A-------------------------------------------------------------------------- 
C----------------0---------------0---------------0---------------5/7/5/8--- 
G----------------0---------------0---------------0---------------3/5/3/6--- 
C---0-0-000-0-0--0--0-0-000-0-0--0--0-0-000-0-0--0--0-0-000-0-0------------  (x3) 
    . . ... . .     . . ... . .     . . ... . .     . . ... . .     

D----------------------------------------------------------- 
F----------------------------------------------------------- 
A----------------------------------------------------------- 
C----------------0---------------0---------------0--6---5--- 
G----------------0---------------0---------------0--6---5--- 
C---0-0-000-0-0--0--0-0-000-0-0--0--0-0-000-0-0--0--6---5--- 
    . . ... . .     . . ... . .     . . ... . . 


Outro 


D------------------------------------------------------------------------------------ 
F------------------------------------------------------------------------------------ 
A------------------------------------------------------------------------------------ 
C-----------------------------------6--5---6--5---6--5---6--5---6--5---6--5---6--5--- 
G-----------------------------------6--5---6--5---6--5---6--5---6--5---6--5---6--5--- 
C---0--(pick as much as you hear)---6--5---6--5---6--5---6--5---6--5---6--5---6--5--- 
    . 

.  - Palm mute 
	  

No existe una video leccione para esta canción

request
LosAcordes
Buscar
auto avanzar rasgueos aumentar disminuir cambiar color esconder acordes gráficos
losacordes exhibir acordes losacordes youTube video losacordes ocultar tabs losacordes ir hacia arriba losacordes