Title Fight

Início > Title Figh... > acordes

Your Screen Door Tablatura

Title Fight

Dificultad:Ningún gradoNingún grado

fernsantana

tuner correct add songbook print version text version salvar en e-mail
acordesukuleletablaturabajobateríaarmónicaflautacavacopiano Guitar Pro
acordes

Your Screen Door

	  


|-------------------------------------------| 
|------5/7\3--------------------------2h3p2-| 
|----2----------2-4/6\2---2-4/6\2---2-------| 
|--0----------0---------0---------0---------| 
|-------------------------------------------| 
|-------------------------------------------| 

|----------------------------------------------| 
|------5/7\3--------------------------2h3p2-2~-| 
|----2----------2-4/6\2---2-4/6\2---2-------2~-| 
|--0----------0---------0---------0---------0~-| 
|----------------------------------------------| 
|----------------------------------------------| 

|------------------------------------------------------------------| 
|------------------------------------------------------------------| 
|--7-7-7-7-7-7-7-7-------------------------------------------------| 
|--7-7-7-7-7-7-7-7--4-4--4-2-2--2-5-5---5-7-7-7-7--xx5--7-7-7-7----| 
|--5-5-5-5-5-5-5-5--4-4--4-2-2--2-5-5---5-7-7-7-7--xx5--7-7-7-7----| 
|-------------------2-2--2-0-0--0-3-3---3-5-5-5-5--xx3--5-5-5-5----| 
I grabbed my things and rode to your place? 

|-----------------------------------------------------------------------| 
|-----------------------------------------------------------------------| 
|--7-7-7-7-7-7-7-7------------------------------------------------------| 
|--7-7-7-7-7-7-7-7--4-4--4-2-2--2-5-5---5-5-5-5-5-5-5-5-5-5-5-5-5-5-5-5-| 
|--5-5-5-5-5-5-5-5--4-4--4-2-2--2-5-5---5-5-5-5-5-5-5-5-5-5-5-5-5-5-5-5-| 
|-------------------2-2--2-0-0--0-3-3---3-3-3-3-3-3-3-3-3-3-3-3-3-3-3-3-| 
Four twenty three?. 

|------------------------------------------------------------------| 
|------------------------------------------------------------------| 
|--6-6-6-6-6-6-6-6-7-7-7-7-7-7-7-7---------------------------------| 
|--7-7-7-7-7-7-7-7-7-7-7-7-7-7-7-7-5-5-5-5-5-5-5-5-5-5-5-5-5-5-5-5-| x2 
|--5-5-5-5-5-5-5-5-5-5-5-5-5-5-5-5-5-5-5-5-5-5-5-5-5-5-5-5-5-5-5-5-| 
|----------------------------------3-3-3-3-3-3-3-3-3-3-3-3-3-3-3-3-| 
And I?m thinking ?what am I doing? this is killing me? 


|-----------------------------------------------| 
|--22--2~-2-222-2~-------2--0--2----------------| 
|--22--2~-2-222-2~-------2--2--2--2-2-2-2-2-2-2-| 
|--00--0~-0-000-0~-------0--0--0--0-0-0-0-0-0-0-| x2 
|--------------------2-2------------------------| 
|--------------------0-0------------------------| 
PM **       *** 
Four twenty three? 

|---------------------------------------------| 
|-----2---------2---------0h2p0-----------2h3-| 
|-----------------2-------------2-------2-----| 
|-------2-------------------------------------| 
|-2-2-----------------------------------------| 
|---------0h2-2-----2h0-0---------0h3-3-------| 


|----------------------------------------------| 
|-----2---------2---------0h2p0--------2-2-2-2-| 
|-----------------2-------------2------2-2-2-2-| 
|-------2------------------------------0-0-0-0-| 
|-2-2------------------------------------------| 
|---------0h2-2-----2h0-0------------0---------| 




|-----------------------------------------------------------------| 
|-2-2-2-2-2-2-2-2-3-3-3-3-3-3-3-3---------------------------------| 
|-2-2-2-2-2-2-2-2-2-2-2-2-2-2-2-2---------------------------------| 
|-0-0-0-0-0-0-0-0-0-0-0-0-0-0-0-0-5-5-5-5-5-5-5-5-5-5-5-5-5-5-5-5-| x2 
|---------------------------------5-5-5-5-5-5-5-5-5-5-5-5-5-5-5-5-| 
|---------------------------------3-3-3-3-3-3-3-3-3-3-3-3-3-3-3-3-| 
I heard your name and thought I?d stop by? 

|---------------------------------------------| 
|-2-2-2-2-2---3-3-3-3-3---2-2-2-2-2-----------| 
|-2-2-2-2-2---2-2-2-2-2---2-2-2-2-2-----------| x2 
|-0-0-0-0-0---0-0-0-0-0---0-0-0-0-0-5-5-5-2-2-| 
|-----------------------------------5-5-5-2-2-| 
|-----------------------------------3-3-3-0-0-| 
Call you and seen how you?ve been? 

|-------------------------------------------| 
|------5/7\3--------------------------2h3p2-| 
|----2----------2-4/6\2---2-4/6\2---2-------| 
|--0----------0---------0---------0---------| 
|-------------------------------------------| 
|-------------------------------------------| 

|----------------------------------------------| 
|------5/7\3--------------------------2h3p2p0--| 
|----2----------2-4/6\2---2-4/6\2---2--------2-| 
|--0----------0---------0---------0------------| 
|----------------------------------------------| 
|----------------------------------------------| 


Play this again, slower: 
|---------------------------------------------| 
|-----2---------2---------0h2p0-----------2h3-| 
|-----------------2-------------2-------2-----| 
|-------2-------------------------------------| 
|-2-2-----------------------------------------| 
|---------0h2-2-----2h0-0---------0h3-3-------| 

Bass outro: 
|-----7h6----------------|------7h6---------------| 
|---7-----7--------------|----7-----7-------------| 
|-5-------------------5--|-/5---------------------| 
|-----------7-7-7-5-7----|------------7-7-7-5-7-0-| 
	  

No existe una video leccione para esta canción

request
LosAcordes
Buscar
auto avanzar rasgueos aumentar disminuir cambiar color esconder acordes gráficos
losacordes exhibir acordes losacordes youTube video losacordes ocultar tabs losacordes ir hacia arriba losacordes