Title Fight

Início > Title Figh... > acordes

Lefty (acoustic) Tablatura

Title Fight

Dificultad:Ningún gradoNingún grado

tamamoreira

tuner correct add songbook print version text version salvar en e-mail
acordesukuleletablaturabajobateríaarmónicaflautacavacopiano Guitar Pro
acordes

Lefty (acoustic)

	  

Intro: 

                     (x4)              (after 4th)                                        
e|-------------------------------------|--------| 
B|-------------------------------------|--------| 
G|-------8~----------------------------|-----3--| 
D|-------6~----------------------------|-----1--| 
A|-------7~-----------/4---------------|-----2--| 
E|-------0~-----------------7----------|-----2--| 


Verse I: 

e|----------------------------------------------| 
B|--------------------7-----------7-------------| 
G|------8-------------8-----------8-------------| 
D|------6-------------8-----------8-------------| 
A|------7-------------6-----------x-------------| 
E|------0-------------------------7-------------| 


Chorus: 
                               (x4) 
e|---------------6------------------------------------------------| 
B|---------7---------------------4--------------------------------| 
G|----------------------------4-----4--------------6--------------| 
D|-----------------------------------------------5-----5----------| 
A|------------------------4------------------6--------------------| 
E|------7-----7---------------------------------------------------| 


Intro: 

                     (x4)              (after 4th)                                        
e|-------------------------------------|--------| 
B|-------------------------------------|--------| 
G|-------8~----------------------------|-----3--| 
D|-------6~----------------------------|-----1--| 
A|-------7~-----------/4---------------|-----2--| 
E|-------0~-----------------7----------|-----2--| 


Verse II: 


e|----------------------------------------------| 
B|--------------------7-----------7-------------| 
G|------8-------------8-----------8-------------| 
D|------6-------------8-----------8-------------| 
A|------7-------------6-----------x-------------| 
E|------0-------------------------7-------------| 


Chorus: 
                               (x4) 
e|---------------6------------------------------------------------| 
B|---------7---------------------4--------------------------------| 
G|----------------------------4-----4--------------6--------------| 
D|-----------------------------------------------5-----5----------| 
A|------------------------4------------------6--------------------| 
E|------7-----7---------------------------------------------------| 


Outro: 


e|--------------------------------------------| 
B|-----------------4--------------------------| 
G|-------8---------4------6-------------------| 
D|-------6----------------5-------------------| 
A|-------7---------4------6-------------------| 
E|-------0------------------------------------| 
	  

No existe una video leccione para esta canción

request
LosAcordes
Buscar
auto avanzar rasgueos aumentar disminuir cambiar color esconder acordes gráficos
losacordes exhibir acordes losacordes youTube video losacordes ocultar tabs losacordes ir hacia arriba losacordes