The Champs

Início > The Champs > acordes

Tequila Tablatura

The Champs

Dificultad:AdelantadoAdelantado

weezer pillows

tuner correct add songbook print version text version salvar en e-mail
acordesukuleletablaturabajobateríaarmónicaflautacavacopiano Guitar Pro
acordes

Tequila

	  this is the only time there is guitar in the song. 
tabbed by : Weezer Pillows 
 
STANDARD TUNING 
 
intro! 
|--4-4--2--4-4-4--2-2-2--| 
|--5-5--3--5-5-5--3-3-3--| 
|--4-4--2--4-4-4--2-2-2--| 
|------------------------| 
|------------------------| 
|------------------------| 
 
|--4-4--2--4--2-2-2-2-2--| 
|--5-5--3--5--3-3-3-3-3--| 
|--4-4--2--4--2-2-2-2-2--| 
|------------------------| 
|------------------------| 
|------------------------| 
 
Lyrics: 
Tequila! 
 
That's all folks! 
 
have fun! 

	  

No existe una video leccione para esta canción

request
LosAcordes
Buscar
auto avanzar rasgueos aumentar disminuir cambiar color esconder acordes gráficos
losacordes exhibir acordes losacordes youTube video losacordes ocultar tabs losacordes ir hacia arriba losacordes