The Associates

Início > The Associ... > acordes

Paper House Tablatura

The Associates

Dificultad:Ningún gradoNingún grado

hebealmeida

tuner correct add songbook print version text version salvar en e-mail
acordesukuleletablaturabajobateríaarmónicaflautacavacopiano Guitar Pro
acordes

Paper House

Tono:  G Más
Paper House Key DD
Paper House Key D#D#
Paper House Key EE
Paper House Key FF(Disminuir uno tono)
Paper House Key F#F#(Disminuir uno semi-tono)
Paper House Key GG(tono original)
Paper House Key G#G#(Aumentar uno semi-tono)
Paper House Key AA(Aumentar uno tono)
Paper House Key A#A#
Paper House Key BB
Paper House Key CC
Paper House Key C#C#
	  


INTRO/INTERLUDE I: 
Keyboard (arrange for Guitar I) 
   G 
e|-15---------------------------------------------------------------------| 
B|-15---------------------------------------------------------------------| 
G|-16---------------------------------------------------------------------| 
D|-17---------------------------------------------------------------------| 
A|------------------------------------------------------------------------| 
E|------------------------------------------------------------------------| 
+ 
   F 
e|-13----------------------------------8-----------------11---------------| 
B|-13----------------------------------8-----------------8----------------| 
G|-14----------------------------------9-----------------8----------------| 
D|-15----------------------------------10----------------9----------------| 
A|-------------------------------------------------------10---------------| 
E|------------------------------------------------------------------------| 
+ 
   G 
e|-15---------------------------------------------------------------------| 
B|-15---------------------------------------------------------------------| 
G|-16---------------------------------------------------------------------| 
D|-17---------------------------------------------------------------------| 
A|------------------------------------------------------------------------| 
E|------------------------------------------------------------------------| 
+ 
   F 
e|-13----------------------------------8-----------------11---------------| 
B|-13----------------------------------8-----------------8----------------| 
G|-14----------------------------------9-----------------8----------------| 
D|-15----------------------------------10----------------9----------------| 
A|-------------------------------------------------------10---------------| 
E|------------------------------------------------------------------------| 
+ 
   C                 Gaug 
e|-8-----------------11---------------| 
B|-8-----------------8----------------| 
G|-9-----------------8----------------| 
D|-10----------------9----------------| 
A|-------------------10---------------| 
E|------------------------------------| 



INTRO/INTERLUDE I: 
Guitar II 
 * palm mute throughout 
e|------------------------------------------------------------------------| 
B|----------8--8--8-----------8--8--8-----------8--8--8-----------8--8--8-| 
G|-7--7--7-----------7--7--7-----------7--7--7-----------7--7--7----------| 
D|------------------------------------------------------------------------| 
A|------------------------------------------------------------------------| 
E|------------------------------------------------------------------------| 
+ 
e|------------------------------------------------------------------------| 
B|----------8--8--8-----------8--8--8-----------8--8--8-----------8--8--8-| 
G|-10-10-10----------10-10-10----------9--9--9-----------8--8--8----------| 
D|------------------------------------------------------------------------| 
A|------------------------------------------------------------------------| 
E|------------------------------------------------------------------------| 
+ 
e|------------------------------------------------------------------------| 
B|----------8--8--8-----------8--8--8-----------8--8--8-----------8--8--8-| 
G|-7--7--7-----------7--7--7-----------7--7--7-----------7--7--7----------| 
D|------------------------------------------------------------------------| 
A|------------------------------------------------------------------------| 
E|------------------------------------------------------------------------| 
+ 
e|------------------------------------------------------------------------| 
B|----------8--8--8-----------8--8--8-----------8--8--8-----------8--8--8-| 
G|-10-10-10----------10-10-10----------9--9--9-----------8--8--8----------| 
D|------------------------------------------------------------------------| 
A|------------------------------------------------------------------------| 
E|------------------------------------------------------------------------| 
+ 
e|------------------------------------| 
B|----------8--8--8-----------8--8--8-| 
G|-9--9--9-----------8--8--8----------| 
D|------------------------------------| 
A|------------------------------------| 
E|------------------------------------| 



Verse: 
Guitars I + II 
e|-0--12-0--0--12-0--0--10-0--0--10-0--0----------------------------------|| 
B|----------------------------------------10-0--0--10-0--0--12-0--0--12-0-|| 
G|------------------------------------------------------------------------|| x 4 
D|------------------------------------------------------------------------|| 
A|------------------------------------------------------------------------|| 
E|------------------------------------------------------------------------|| 
+ 
e|-0--12-0--0--12-0--0--10-0--0--10-0-------------------------------------| 
B|-------------------------------------10-0--0--10-0--0--12-0--0--12-0--0-| 
G|------------------------------------------------------------------------| 
D|------------------------------------------------------------------------| 
A|------------------------------------------------------------------------| 
E|------------------------------------------------------------------------| 
+ 
e|-0--12-0--0--12-0--0--10-0--0--10-0--0--10-0--9--5--0--0--5--0--0--9--0-| 
B|------------------------------------------------------------------------| 
G|------------------------------------------------------------------------| 
D|------------------------------------------------------------------------| 
A|------------------------------------------------------------------------| 
E|------------------------------------------------------------------------| 



Chorus: 
Guitars I + II 
e|-7--7b-7--5-----5--7--7b-7--5-----5--7--7b-7--5-----5--7--7b-7--5-----5-| 
B|-------------8-----------------8-----------------8-----------------8----| 
G|------------------------------------------------------------------------| 
D|------------------------------------------------------------------------| 
A|------------------------------------------------------------------------| 
E|------------------------------------------------------------------------| 
+ 
e|-7--7b-7--5-----5--7--7b-7--5-----5--7--7b-7--5-----5--7--7b-7--5-----0-| 
B|-------------8-----------------8-----------------8-----------------8----| 
G|------------------------------------------------------------------------| 
D|------------------------------------------------------------------------| 
A|------------------------------------------------------------------------| 
E|------------------------------------------------------------------------| 
+ 
e|-0--13-0--12-8--0--7--8--0--0--12-0--0--13-0--12-8--0--7--8--0--0--12-0-| 
B|------------------------------------------------------------------------| 
G|------------------------------------------------------------------------| 
D|------------------------------------------------------------------------| 
A|------------------------------------------------------------------------| 
E|------------------------------------------------------------------------| 
+ 
e|-0--13-0--12-8--0--7--8--0--0--12-0--7--7--7--7--7\-5--5--5--5--5--5\---| 
B|------------------------------------------------------------------------| 
G|------------------------------------------------------------------------| 
D|------------------------------------------------------------------------| 
A|------------------------------------------------------------------------| 
E|------------------------------------------------------------------------| 



INTERLUDE II: 
Keyboard (arrange for Guitar I) 
   G 
e|-15---------------------------------------------------------------------| 
B|-15---------------------------------------------------------------------| 
G|-16---------------------------------------------------------------------| 
D|-17---------------------------------------------------------------------| 
A|------------------------------------------------------------------------| 
E|------------------------------------------------------------------------| 
+ 
   F 
e|-13----------------------------------8-----------------11---------------| 
B|-13----------------------------------8-----------------8----------------| 
G|-14----------------------------------9-----------------8----------------| 
D|-15----------------------------------10----------------9----------------| 
A|-------------------------------------------------------10---------------| 
E|------------------------------------------------------------------------| 
+ 
   G 
e|-15---------------------------------------------------------------------| 
B|-15---------------------------------------------------------------------| 
G|-16---------------------------------------------------------------------| 
D|-17---------------------------------------------------------------------| 
A|------------------------------------------------------------------------| 
E|------------------------------------------------------------------------| 
+ 
   F 
e|-13----------------------------------8-----------------11---------------| 
B|-13----------------------------------8-----------------8----------------| 
G|-14----------------------------------9-----------------8----------------| 
D|-15----------------------------------10----------------9----------------| 
A|-------------------------------------------------------10---------------| 
E|------------------------------------------------------------------------| 
+ 
   G 
e|-15---------------------------------------------------------------------| 
B|-15---------------------------------------------------------------------| 
G|-16---------------------------------------------------------------------| 
D|-17---------------------------------------------------------------------| 
A|------------------------------------------------------------------------| 
E|------------------------------------------------------------------------| 
+ 
   F 
e|-13----------------------------------8-----------------11---------------| 
B|-13----------------------------------8-----------------8----------------| 
G|-14----------------------------------9-----------------8----------------| 
D|-15----------------------------------10----------------9----------------| 
A|-------------------------------------------------------10---------------| 
E|------------------------------------------------------------------------| 
+ 
   G 
e|-15---------------------------------------------------------------------| 
B|-15---------------------------------------------------------------------| 
G|-16---------------------------------------------------------------------| 
D|-17---------------------------------------------------------------------| 
A|------------------------------------------------------------------------| 
E|------------------------------------------------------------------------| 
+ 
   F 
e|-13----------------------------------8-----------------11---------------| 
B|-13----------------------------------8-----------------8----------------| 
G|-14----------------------------------9-----------------8----------------| 
D|-15----------------------------------10----------------9----------------| 
A|-------------------------------------------------------10---------------| 
E|------------------------------------------------------------------------| 
+ 
   C                 Gaug 
e|-8-----------------11---------------| 
B|-8-----------------8----------------| 
G|-9-----------------8----------------| 
D|-10----------------9----------------| 
A|-------------------10---------------| 
E|------------------------------------| 



INTERLUDE II: 
Guitar II 
 * palm mute throughout 
e|------------------------------------------------------------------------| 
B|----------8--8--8-----------8--8--8-----------8--8--8-----------8--8--8-| 
G|-7--7--7-----------7--7--7-----------7--7--7-----------7--7--7----------| 
D|------------------------------------------------------------------------| 
A|------------------------------------------------------------------------| 
E|------------------------------------------------------------------------| 
+ 
e|------------------------------------------------------------------------| 
B|----------8--8--8-----------8--8--8-----------8--8--8-----------8--8--8-| 
G|-10-10-10----------10-10-10----------9--9--9-----------8--8--8----------| 
D|------------------------------------------------------------------------| 
A|------------------------------------------------------------------------| 
E|------------------------------------------------------------------------| 
+ 
e|------------------------------------------------------------------------| 
B|----------8--8--8-----------8--8--8-----------8--8--8-----------8--8--8-| 
G|-7--7--7-----------7--7--7-----------7--7--7-----------7--7--7----------| 
D|------------------------------------------------------------------------| 
A|------------------------------------------------------------------------| 
E|------------------------------------------------------------------------| 
+ 
e|------------------------------------------------------------------------| 
B|----------8--8--8-----------8--8--8-----------8--8--8-----------8--8--8-| 
G|-10-10-10----------10-10-10----------9--9--9-----------8--8--8----------| 
D|------------------------------------------------------------------------| 
A|------------------------------------------------------------------------| 
E|------------------------------------------------------------------------| 
+ 
e|------------------------------------------------------------------------| 
B|----------8--8--8-----------8--8--8-----------8--8--8-----------8--8--8-| 
G|-7--7--7-----------7--7--7-----------7--7--7-----------7--7--7----------| 
D|------------------------------------------------------------------------| 
A|------------------------------------------------------------------------| 
E|------------------------------------------------------------------------| 
+ 
e|------------------------------------------------------------------------| 
B|----------8--8--8-----------8--8--8-----------8--8--8-----------8--8--8-| 
G|-10-10-10----------10-10-10----------9--9--9-----------8--8--8----------| 
D|------------------------------------------------------------------------| 
A|------------------------------------------------------------------------| 
E|------------------------------------------------------------------------| 
+ 
e|------------------------------------------------------------------------| 
B|----------8--8--8-----------8--8--8-----------8--8--8-----------8--8--8-| 
G|-7--7--7-----------7--7--7-----------7--7--7-----------7--7--7----------| 
D|------------------------------------------------------------------------| 
A|------------------------------------------------------------------------| 
E|------------------------------------------------------------------------| 
+ 
e|------------------------------------------------------------------------| 
B|----------8--8--8-----------8--8--8-----------8--8--8-----------8--8--8-| 
G|-10-10-10----------10-10-10----------9--9--9-----------8--8--8----------| 
D|------------------------------------------------------------------------| 
A|------------------------------------------------------------------------| 
E|------------------------------------------------------------------------| 
+ 
e|------------------------------------| 
B|----------8--8--8-----------8--8--8-| 
G|-9--9--9-----------8--8--8----------| 
D|------------------------------------| 
A|------------------------------------| 
E|------------------------------------| 



Bridge: 
Guitar I 
e|------------------------------------------------------------------------|| 
B|------------------------------------------------------------------------|| 
G|------------------------------------------------------------------------|| x 4 
D|------------------------------------------------------------------------|| 
A|------------------------------------------------------------------------|| 
E|------------------------------------------------------------------------|| 
+ 
e|------------------------------------------------------------------------|| 
B|------------------------------------------------------------------------|| 
G|-7-h9--9--9--7-----7-h10-10-10-7-----7-h9--9--9--7-----7-h10-10-10-7----|| x 2 
D|-0-----0--0--0-----0-----0--0--0-----0-----0--0--0-----0-----0--0--0----|| 
A|------------------------------------------------------------------------|| 
E|------------------------------------------------------------------------|| 
+ 
e|------------------------------------------------------------------------| 
B|------------------------------------------------------------------------| 
G|------------------------------------------------------------------------| 
D|-7-h9--9--9--7-----7-h10-10-10-7-----7-h9--9--9--7-----7-h10-10-10-7----| 
A|-0-----0--0--0-----0-----0--0--0-----0-----0--0--0-----0-----0--0--0----| 
E|------------------------------------------------------------------------| 
+ 
e|------------------------------------------------------------------------| 
B|------------------------------------------------------------------------| 
G|-------------------------------------------------------------------0----| 
D|-7-h9--9--9--7-----7-h10-10-10-7-----7-h9--9--9--7-----7-h10-10-10------| 
A|-8-----8--8--8-----8-----8--8--8-----8-----8--8--8-----8-----8--8--8----| 
E|------------------------------------------------------------------------| 
+ 
e|------------------------------------------------------------------------| 
B|------------------------------------------------------------------------| 
G|------------------------------------------------------------------------| 
D|-7-h9--9--9--7-----7-h10-10-10-7-----7-h9--9--9--7-----7-h10-10-10-7----| 
A|-9-----9--9--9-----9-----9--9--9-----9-----9--9--9-----9-----9--9--9----| 
E|------------------------------------------------------------------------| 
+ 
e|------------------------------------------------------------------------| 
B|------------------------------------------------------------------------| 
G|------------------------------------------------------------------------| 
D|-7-h9--9--9--7-----7-h10-10-10-7-----7-h9--9--9--9--9--9--9--9--9--9--9-| 
A|-9-----9--9--9-----9-----9--9--9-----9-----9--9--9--9--9--9--9--9--9--9-| 
E|------------------------------------------------------------------------| 



Bridge: 
Guitar II 
e|------------------------------------------------------------------------| 
B|-6--#-------------------------------------------------------------------| 
G|-7--#-------------------------------------------------------------------| 
D|-7--#-------------------------------------------------------------------| 
A|-5--#-------------------------------------------------------------------| 
E|------------------------------------------------------------------------| 
+ 
e|------------------------------------------------------------------------| 
B|------------------------------------------------------------------------| 
G|------------------------------------------------------------------------| 
D|------------------------------------------------------------------------| 
A|------------------------------------------------------------------------| 
E|------------------------------------------------------------------------| 
+ 
e|------------------------------------------------------------------------| 
B|------------------------------------------------------------------------| 
G|-5--#-------------------------------------------------------------------| 
D|-7--#-------------------------------------------------------------------| 
A|-7--#-------------------------------------------------------------------| 
E|-5--#-------------------------------------------------------------------| 
+ 
e|------------------------------------------------------------------------| 
B|------------------------------------------------------------------------| 
G|------------------------------------------------------------------------| 
D|------------------------------------------------------------------------| 
A|------------------------------------------------------------------------| 
E|------------------------------------------------------------------------| 
+ 
e|------------------------------------------------------------------------| 
B|-6--#-------------------------------------------------------------------| 
G|-7--#-------------------------------------------------------------------| 
D|-7--#-------------------------------------------------------------------| 
A|-5--#-------------------------------------------------------------------| 
E|------------------------------------------------------------------------| 
+ 
e|------------------------------------------------------------------------| 
B|------------------------------------------------------------------------| 
G|------------------------------------------------------------------------| 
D|------------------------------------------------------------------------| 
A|------------------------------------------------------------------------| 
E|------------------------------------------------------------------------| 
+ 
e|------------------------------------------------------------------------| 
B|------------------------------------------------------------------------| 
G|-5--#-------------------------------------------------------------------| 
D|-7--#-------------------------------------------------------------------| 
A|-7--#-------------------------------------------------------------------| 
E|-5--#-------------------------------------------------------------------| 
+ 
e|------------------------------------------------------------------------| 
B|------------------------------------------------------------------------| 
G|------------------------------------------------------------------------| 
D|------------------------------------------------------------------------| 
A|------------------------------------------------------------------------| 
E|------------------------------------------------------------------------| 
+ 
e|------------------------------------------------------------------------| 
B|-6--#-------------------------------------------------------------------| 
G|-7--#-------------------------------------------------------------------| 
D|-7--#-------------------------------------------------------------------| 
A|-5--#-------------------------------------------------------------------| 
E|------------------------------------------------------------------------| 
+ 
e|------------------------------------------------------------------------| 
B|------------------------------------------------------------------------| 
G|------------------------------------------------------------------------| 
D|------------------------------------------------------------------------| 
A|------------------------------------------------------------------------| 
E|------------------------------------------------------------------------| 
+ 
e|------------------------------------------------------------------------| 
B|------------------------------------------------------------------------| 
G|-5--#-------------------------------------------------------------------| 
D|-7--#-------------------------------------------------------------------| 
A|-7--#-------------------------------------------------------------------| 
E|-5--#-------------------------------------------------------------------| 
+ 
e|------------------------------------------------------------------------| 
B|------------------------------------------------------------------------| 
G|------------------------------------------------------------------------| 
D|-7--#-------------------------------------------------------------------| 
A|-8--#-------------------------------------------------------------------| 
E|------------------------------------------------------------------------| 
+ 
e|------------------------------------------------------------------------| 
B|------------------------------------------------------------------------| 
G|------------------------------------------------------------------------| 
D|-7--#-------------------------------------------------------------------| 
A|-9--#-------------------------------------------------------------------| 
E|-10-#-------------------------------------------------------------------| 
+ 
e|------------------------------------------------------------------------| 
B|------------------------------------------------------------------------| 
G|------------------------------------------------------------------------| 
D|-7--#-------------------------------------------------------------------| 
A|-9--#-------------------------------------------------------------------| 
E|-10-#-------------------------------------------------------------------| 



Bridge: 
Guitar Overdub 
e|------------------------------------------------------------------------|| 
B|------------------------------------------------------------------------|| 
G|------------------------------------------------------------------------|| x 10 
D|------------------------------------------------------------------------|| 
A|------------------------------------------------------------------------|| 
E|------------------------------------------------------------------------|| 
+ 
e|------------------------------------------------------------------------| 
B|------------------------------------------------------------------------| 
G|------------------------------------------------------------------------| 
D|-2-----2-----2-----2-----2-----2-----2-----2-----2-----2-----2-----2----| 
A|----0-----0-----0-----0-----0-----0-----0-----0-----0-----0-----0-----0-| 
E|------------------------------------------------------------------------| 
+ 
e|------------------------------------------------------------------------| 
B|------------------------------------------------------------------------| 
G|------------------------------------------------------------------------| 
D|-3-----3-----3-----3-----3-----3-----3-----3-----3-----3-----3-----3----| 
A|----0-----0-----0-----0-----0-----0-----0-----0-----0-----0-----0-----0-| 
E|------------------------------------------------------------------------| 
+ 
e|------------------------------------------------------------------------|| 
B|------------------------------------------------------------------------|| 
G|------------------------------------------------------------------------|| x 2 
D|-4-----4-----4-----4-----4-----4-----4-----4-----4-----4-----4-----4----|| 
A|----0-----0-----0-----0-----0-----0-----0-----0-----0-----0-----0-----0-|| 
E|------------------------------------------------------------------------|| 



OUTRO: 
Keyboard (arrange for Guitar I) 
   G 
e|-15---------------------------------------------------------------------| 
B|-15---------------------------------------------------------------------| 
G|-16---------------------------------------------------------------------| 
D|-17---------------------------------------------------------------------| 
A|------------------------------------------------------------------------| 
E|------------------------------------------------------------------------| 
+ 
   F 
e|-13----------------------------------8-----------------11---------------| 
B|-13----------------------------------8-----------------8----------------| 
G|-14----------------------------------9-----------------8----------------| 
D|-15----------------------------------10----------------9----------------| 
A|-------------------------------------------------------10---------------| 
E|------------------------------------------------------------------------| 
+ 
   G 
e|-15---------------------------------------------------------------------| 
B|-15---------------------------------------------------------------------| 
G|-16---------------------------------------------------------------------| 
D|-17---------------------------------------------------------------------| 
A|------------------------------------------------------------------------| 
E|------------------------------------------------------------------------| 
+ 
   F 
e|-13----------------------------------8-----------------11---------------| 
B|-13----------------------------------8-----------------8----------------| 
G|-14----------------------------------9-----------------8----------------| 
D|-15----------------------------------10----------------9----------------| 
A|-------------------------------------------------------10---------------| 
E|------------------------------------------------------------------------| 
+ 
   G 
e|-15---------------------------------------------------------------------| 
B|-15---------------------------------------------------------------------| 
G|-16---------------------------------------------------------------------| 
D|-17---------------------------------------------------------------------| 
A|------------------------------------------------------------------------| 
E|------------------------------------------------------------------------| 
+ 
   F 
e|-13----------------------------------8-----------------11---------------| 
B|-13----------------------------------8-----------------8----------------| 
G|-14----------------------------------9-----------------8----------------| 
D|-15----------------------------------10----------------9----------------| 
A|-------------------------------------------------------10---------------| 
E|------------------------------------------------------------------------| 
+ 
   G 
e|-15---------------------------------------------------------------------| 
B|-15---------------------------------------------------------------------| 
G|-16---------------------------------------------------------------------| 
D|-17---------------------------------------------------------------------| 
A|------------------------------------------------------------------------| 
E|------------------------------------------------------------------------| 
+ 
   F 
e|-13----------------------------------8-----------------11---------------| 
B|-13----------------------------------8-----------------8----------------| 
G|-14----------------------------------9-----------------8----------------| 
D|-15----------------------------------10----------------9----------------| 
A|-------------------------------------------------------10---------------| 
E|------------------------------------------------------------------------| 
+ 
   G 
e|-15---------------------------------------------------------------------| 
B|-15---------------------------------------------------------------------| 
G|-16---------------------------------------------------------------------| 
D|-17---------------------------------------------------------------------| 
A|------------------------------------------------------------------------| 
E|------------------------------------------------------------------------| 



OUTRO: 
Guitar II 
 * palm mute throughout 
e|------------------------------------------------------------------------| 
B|----------8--8--8-----------8--8--8-----------8--8--8-----------8--8--8-| 
G|-7--7--7-----------7--7--7-----------7--7--7-----------7--7--7----------| 
D|------------------------------------------------------------------------| 
A|------------------------------------------------------------------------| 
E|------------------------------------------------------------------------| 
+ 
e|------------------------------------------------------------------------| 
B|----------8--8--8-----------8--8--8-----------8--8--8-----------8--8--8-| 
G|-10-10-10----------10-10-10----------9--9--9-----------8--8--8----------| 
D|------------------------------------------------------------------------| 
A|------------------------------------------------------------------------| 
E|------------------------------------------------------------------------| 
+ 
e|------------------------------------------------------------------------| 
B|----------8--8--8-----------8--8--8-----------8--8--8-----------8--8--8-| 
G|-7--7--7-----------7--7--7-----------7--7--7-----------7--7--7----------| 
D|------------------------------------------------------------------------| 
A|------------------------------------------------------------------------| 
E|------------------------------------------------------------------------| 
+ 
e|------------------------------------------------------------------------| 
B|----------8--8--8-----------8--8--8-----------8--8--8-----------8--8--8-| 
G|-10-10-10----------10-10-10----------9--9--9-----------8--8--8----------| 
D|------------------------------------------------------------------------| 
A|------------------------------------------------------------------------| 
E|------------------------------------------------------------------------| 
+ 
e|------------------------------------------------------------------------| 
B|----------8--8--8-----------8--8--8-----------8--8--8-----------8--8--8-| 
G|-7--7--7-----------7--7--7-----------7--7--7-----------7--7--7----------| 
D|------------------------------------------------------------------------| 
A|------------------------------------------------------------------------| 
E|------------------------------------------------------------------------| 
+ 
e|------------------------------------------------------------------------| 
B|----------8--8--8-----------8--8--8-----------8--8--8-----------8--8--8-| 
G|-10-10-10----------10-10-10----------9--9--9-----------8--8--8----------| 
D|------------------------------------------------------------------------| 
A|------------------------------------------------------------------------| 
E|------------------------------------------------------------------------| 
+ 
e|------------------------------------------------------------------------| 
B|----------8--8--8-----------8--8--8-----------8--8--8-----------8--8--8-| 
G|-7--7--7-----------7--7--7-----------7--7--7-----------7--7--7----------| 
D|------------------------------------------------------------------------| 
A|------------------------------------------------------------------------| 
E|------------------------------------------------------------------------| 
+ 
e|------------------------------------------------------------------------| 
B|----------8--8--8-----------8--8--8-----------8--8--8-----------8--8--8-| 
G|-10-10-10----------10-10-10----------9--9--9-----------8--8--8----------| 
D|------------------------------------------------------------------------| 
A|------------------------------------------------------------------------| 
E|------------------------------------------------------------------------| 
+ 
e|------------------------------------------------------------------------| 
B|-------------------8----------------------------------------------------| 
G|-7----------------------------------------------------------------------| 
D|------------------------------------------------------------------------| 
A|------------------------------------------------------------------------| 
E|------------------------------------------------------------------------| 



SONG STRUCTURE: 

Guitar I 
INTRO 
VERSE 
Chorus 
INTERLUDE I 
VERSE 
Chorus 
INTERLUDE II 
BRIDGE 
OUTRO 

Guitar II 
INTRO 
VERSE 
Chorus 
INTERLUDE I 
VERSE 
Chorus 
INTERLUDE II 
BRIDGE (w/ Overdub) 
OUTRO 



That's it. Please feel free to leave comments, corrections, requests, and suggestions. Cheers! 
-Bennyshambles78- 
	  

No existe una video leccione para esta canción

request
Aumentar uno tonoAumentar uno tono
Aumentar uno semi-tonoAumentar uno semi-tono
Disminuir uno semi-tonoDisminuir uno semi-tono
Disminuir uno tonoDisminuir uno semi-tono
LosAcordes
Buscar
auto avanzar rasgueos aumentar disminuir cambiar color esconder acordes gráficos
losacordes exhibir acordes losacordes youTube video losacordes ocultar tabs losacordes ir hacia arriba losacordes