Taylor Swift

Início > Taylor Swi... > acordes

Invisible Tablatura

Taylor Swift

Dificultad:Ningún gradoNingún grado

renejunior

tuner correct add songbook print version text version salvar en e-mail
acordesukuleletablaturabajobateríaarmónicaflautacavacopiano Guitar Pro
acordes

Invisible

Áño: 2008 - Álbum: Taylor Swift

Tono:  G Más
Invisible Key DD
Invisible Key D#D#
Invisible Key EE
Invisible Key FF(Disminuir uno tono)
Invisible Key F#F#(Disminuir uno semi-tono)
Invisible Key GG(tono original)
Invisible Key G#G#(Aumentar uno semi-tono)
Invisible Key AA(Aumentar uno tono)
Invisible Key A#A#
Invisible Key BB
Invisible Key CC
Invisible Key C#C#
	  

Tuning:Standard 
e|---------------------|-------5--3-------| 
B|---------------------|-------------0--1-| 
G|-4--4--4--2--0--2--2-|-0--2-------------| 
D|---------------------|------------------| 
A|---------------------|------------------| 
E|---------------------|------------------| 
She can’t see the way your eyes| Light up when you smile 

e|------------------------------|-------5--3-------| 
B|------------------------------|-------------0--1-| 
G|-0--2--4--2--0--2--0--2--0--4-|-0--2-------------| 
D|------------------------------|------------------| 
A|------------------------------|------------------| 
E|------------------------------|------------------| 
She’ll never notice how you stop and stare| Whenever she walks by 

e|----3--3----------------|---------------|-0--2--3--7--5--3--0----| 
B|-0--------5--3--3--0--3-|-0--3--0--3--5-|----------------------3-| 
G|------------------------|---------------|------------------------| 
D|------------------------|---------------|------------------------| 
A|------------------------|---------------|------------------------| 
E|------------------------|---------------|------------------------| 
And you can’t see me wantin' you| The way you want her| But you are everything to me. 

e|-3--5--7--8--7--3-|-3--5--7--8--7--3-|-3--3--5--7--8--7--3-|-3--------5-| 
B|------------------|------------------|---------------------|----0--1----| 
G|------------------|------------------|---------------------|------------| 
D|------------------|------------------|---------------------|------------| 
A|------------------|------------------|---------------------|------------| 
E|------------------|------------------|---------------------|------------| 
I just wanna show you| She don’t even know you| She's never gonna love you| Like I want to 

e|-3--3--5--7--8--7--3-|-3--5--7--8--7--3-|-3--5--7--8--7--5--3-|-7--5--3-|-8--7--5--3-| 
B|---------------------|------------------|---------------------|---------|------------| 
G|---------------------|------------------|---------------------|---------|------------| 
D|---------------------|------------------|---------------------|---------|------------| 
A|---------------------|------------------|---------------------|---------|------------| 
E|---------------------|------------------|---------------------|---------|------------| 
And you just see right through me| If you only knew me| We could be a beautiful| Miracle| Unbelievable 

e|-3--3--5--7--8--7--3--3-| 
B|------------------------| 
G|------------------------| 
D|------------------------| 
A|------------------------| 
E|------------------------| 
Instead of just| Invisible 

e|---------------------|-------5--3-------| 
B|---------------------|-------------0--1-| 
G|-4--4--4--2--0--2--2-|-0--2-------------| 
D|---------------------|------------------| 
A|---------------------|------------------| 
E|---------------------|------------------| 
There’s a fire inside of you| That can’t help but shine through 

e|------------------------|-------5--3-------| 
B|------------------------|-------------0--1-| 
G|-0--2--4--4--0--2--0--2-|-0--2-------------| 
D|------------------------|------------------| 
A|------------------------|------------------| 
E|------------------------|------------------| 
She’s never gonna see the light| No matter what you do 

e|----3--3-------------------|---------------|-3--7--5--3--3--3--3----| 
B|-0--------5--3--5--3--5--3-|-3--0--3--0--5-|----------------------3-| 
G|---------------------------|---------------|------------------------| 
D|---------------------------|---------------|------------------------| 
A|---------------------------|---------------|------------------------| 
E|---------------------------|---------------|------------------------| 
And all I think about is how to| make you think of me| And everything that we could be 

e|-3--5--7--8--7--3-|-3--5--7--8--7--3-|-3--3--5--7--8--7--3-|-3--------5-| 
B|------------------|------------------|---------------------|----0--1----| 
G|------------------|------------------|---------------------|------------| 
D|------------------|------------------|---------------------|------------| 
A|------------------|------------------|---------------------|------------| 
E|------------------|------------------|---------------------|------------| 
I just wanna show you| She don’t even know you| She's never gonna love you| Like I want to 

e|-3--3--5--7--8--7--3-|-3--5--7--8--7--3-|-3--5--7--8--7--5--3-|-7--5--3-|-8--7--5--3-| 
B|---------------------|------------------|---------------------|---------|------------| 
G|---------------------|------------------|---------------------|---------|------------| 
D|---------------------|------------------|---------------------|---------|------------| 
A|---------------------|------------------|---------------------|---------|------------| 
E|---------------------|------------------|---------------------|---------|------------| 
And you just see right through me| If you only knew me| We could be a beautiful| Miracle| Unbelievable 

e|-3--3--5--7--8--7--3--3-| 
B|------------------------| 
G|------------------------| 
D|------------------------| 
A|------------------------| 
E|------------------------| 
Instead of just| Invisible 

e|-3--7--5--3--3--3--5--5-|-7--5--3--5--3--3-|-10--8--8--7--7--5--5--5-|-3--5--7--5--3--3-| 
B|------------------------|------------------|-------------------------|------------------| 
G|------------------------|------------------|-------------------------|------------------| 
D|------------------------|------------------|-------------------------|------------------| 
A|------------------------|------------------|-------------------------|------------------| 
E|------------------------|------------------|-------------------------|------------------| 
Like shadows in a faded light| Oh, we’re invisible| I just wanna open your eyes| And make you realize 

e|-3--5--7--8--7--3-|-8--7--5--3--5--7-|-3--5--7--8--7--3-|-3--------5-| 
B|------------------|------------------|------------------|----0--1----| 
G|------------------|------------------|------------------|------------| 
D|------------------|------------------|------------------|------------| 
A|------------------|------------------|------------------|------------| 
E|------------------|------------------|------------------|------------| 
I just wanna show you| She don’t even know you| Baby, let me love you| Let me want you 

e|-3--5--7--8--7--3-|-3--3--5--7--8--7--3-|-3--5--7--8--7--5--3-|-7--5--3-|-8--7--5--3-| 
B|------------------|---------------------|---------------------|---------|------------| 
G|------------------|---------------------|---------------------|---------|------------| 
D|------------------|---------------------|---------------------|---------|------------| 
A|------------------|---------------------|---------------------|---------|------------| 
E|------------------|---------------------|---------------------|---------|------------| 
You just see right through me| But if you only knew me| We could be a beautiful| Miracle| Unbelievable 

e|-3--3--5--7--8--7--3--3-| 
B|------------------------| 
G|------------------------| 
D|------------------------| 
A|------------------------| 
E|------------------------| 
Instead of just| Invisible 

e|---------------------|-------5--3-------| 
B|---------------------|-------------0--1-| 
G|-4--4--4--2--0--2--2-|-0--2-------------| 
D|---------------------|------------------| 
A|---------------------|------------------| 
E|---------------------|------------------| 
She can’t see the way your eyes| Light up when you smile 

************************************ 

| /   slide up 
| \   slide down 
| h   hammer-on 
| p   pull-off 
| ~   vibrato 
| +   harmonic 
| x   Mute note 
| b   Bend 
| pb  Pre-bend 
| br  Bend release 
| pbr Pre-bend release 
| brb Bend release bend 

************************************ 
	  

No existe una video leccione para esta canción

request
LosAcordes
Buscar
auto avanzar rasgueos aumentar disminuir cambiar color esconder acordes gráficos
losacordes exhibir acordes losacordes youTube video losacordes ocultar tabs losacordes ir hacia arriba losacordes