Suicidal Tendencies

Início > Suicidal T... > acordes

I'll Hate You Better Tablatura

Suicidal Tendencies

Dificultad:Ningún gradoNingún grado

marcnagel

tuner correct add songbook print version text version salvar en e-mail
acordesukuleletablaturabajobateríaarmónicaflautacavacopiano Guitar Pro
acordes

I'll Hate You Better

	  Intro: 

 
E|-----------------7---------------------------------------------------------| 
B|-----------7-----7-------------7--------10---------------------------------|  
G|--------9----9-------------9-----9------9----------------------------------| 
D|------9--9----9----------9---9-----9---------------------------------------|  
A|----7------------------7---------------------------------------------------| 
E|---------------------------------------------------------------------------| 
 
			  
 
E|---------------------------------------------------------------------------| 
B|---------------------------------------------------------------------------| 
G|---------------------------------------------------------------------------|  
D|---------------------------------------------------------------------------| 
A|----5-------3----------------------------2222222222222222------------------| 
E|----3-------1----------------------------0000000000000000------------------| 
 

 
E|---------------------------------------------------------------------------| 
B|---------------------------------------------------------------------------| 
G|----9---------7------------------------------------------------------------| 
D|----9--9------7--7---------------------------------------------------------|  
A|----7--9------5--7---------------------------------------------------------| 
E|-------7---------5---------------------------------------------------------| 
 

 
E|---------------------------------------------------------------------------| 
B|---------------------------------------------------------------------------|  
G|----------------2----------------------------------------------------------|   
D|----555---333---2-------------------333---5---5555-------------------------| 
A|----333---111---0---3333------555---111---3---3333-------------------------| 
E|--------------------1111------333------------------------------------------| 
 

 
E|---------------------------------------------------------------------------| 
B|---------------------------------------------------------------------------| 
G|---------------------------------------------------------------------------| 
D|------------------------------------5------------------12--7--9--9999------| 
A|----5-------3------------------5------------2--5--2----10--5--7--7777------| 
E|----3-------1---------0--5--7-----7---------0--3--0------------------------| 
 

 
E|---------------------------------------------------------------------------| 
B|---------------------------------------------------------------------------| 
G|---------------------------------------------------------------------------|  
D|---------------------------------------------------------------------------| 
A|----5-------3-----------------------------7777777777777777-----------------| 
E|----3-------1-----------------------------5555555555555555-----------------| 
 

 
E|---------------------------------------------------------------------------| 
B|---------------------------------------------------------------------------| 
G|----7---------5------------------------------------------------------------|  
D|----7--7------5--5---------------------------------------------------------| 
A|----5--7------3--5---------------------------------------------------------|  
E|-------5---------3---------------------------------------------------------| 
 

 
E|---------------------------------------------------------------------------| 
B|---------------------------------------------------------------------------| 
G|----4---------2------------------------------------------------------------|  
D|----4--4------2--2---------------------------------------------------------| 
A|----2--4------0--2---------------------------------------------------------| 
E|-------2---------0---------------------------------------------------------| 
 
	  

No existe una video leccione para esta canción

request
LosAcordes
Buscar
auto avanzar rasgueos aumentar disminuir cambiar color esconder acordes gráficos
losacordes exhibir acordes losacordes youTube video losacordes ocultar tabs losacordes ir hacia arriba losacordes