Stone Temple Pilots

Início > Stone Temp... > acordes

No Memory Tablatura

Stone Temple Pilots

Dificultad:AdelantadoAdelantado

chekky

tuner correct add songbook print version text version salvar en e-mail
acordesukuleletablaturabajobateríaarmónicaflautacavacopiano Guitar Pro
acordes

No Memory

	  --------------------------------------------------- 
-------------0h1--------------------1-------------- 
------------------0---------------------0---------- 
--------2--------------------2--------------2------ 
-----0-------------------3------------------------- 
--------------------------------------------------- 

--------------------------------------------------- 
----------------2h3-------------------------------- 
----------------------4----------------4----------- 
---------4--------------------------------5-------- 
-----2--------------------------5------------5----- 
-----------------------------3--------------------- 

--------------------------------------------------- 
--------------------------------------------------- 
------------2---------------------------7---------- 
---------------3---------------------------8------- 
-------3--------------------------8-------------8-- 
----1----------------1---------6------------------- 

----------------------0-------0--------0----------- 
----------------------3-------1--------0----------- 
------------0---------0-------0--------0----------- 
---------2-----------------------------2----------- 
------2--------------------------------2----------- 
---0----------------------------------------------- 
	  

No existe una video leccione para esta canción

request
LosAcordes
Buscar
auto avanzar rasgueos aumentar disminuir cambiar color esconder acordes gráficos
losacordes exhibir acordes losacordes youTube video losacordes ocultar tabs losacordes ir hacia arriba losacordes