Silverchair

Início > Silverchai... > acordes

Stoned Tablatura

Silverchair

Dificultad:Ningún gradoNingún grado

tuner correct add songbook print version text version salvar en e-mail
acordesukuleletablaturabajobateríaarmónicaflautacavacopiano Guitar Pro
acordes

Stoned

	   
Tuning-Standard 
 
Key 
^-upstroke 
 
(Note--for the intro, verse, and chorus i add small palm mutes to  
keep the rhythm going) 
 
Intro (distortion) 
   G ^ 
E|---3-3--------------| 
B|---3-3--------------| 
G|-4-4-4--6-----3--5--| 
D|-5------7--7--3--5--| 
A|-5------7--7--1--3--| 
E|-3------5--5--------| 
 
Verse (dist. off) 
      ^            ^ 
E|-3--3--1--1-1--3-3-3-3-3---------3-| 
B|-3--3--1--1-1--3-3-3-3---3---3-----| 
G|-4--4--3--3-3--5-5-5-5-----5---5---| 
D|-5-----3--3-3--5-5-5-5-------------| 
A|-5-----1--1-1--3-3-3-3-------------| 
E|-3---------------------------------| 
 
 
Before entering the next verse play this 
      ^            ^ 
E|-3--3--1--1-1--3-3-3-3-3---------| 
B|-3--3--1--1-1--3-3-3-3---3-------| 
G|-4--4--3--3-3--5-5-5-5-----5-----| 
D|-5-----3--3-3--5-5-5-5-------5---| 
A|-5-----1--1-1--3-3-3-3---------3-| 
E|-3-------------------------------| 
 
Chorus 
E|------------------------------------| 
B|------------------------------------| 
G|---------------3-3------------------| 
D|-5-5--7--7-7-7-3-3--3---------------| 
A|-5-5--7--7-7-7-1-1--3-----------1---| 
E|-3-3--5--5-5-5------1-1-1-0-1h3---3-| 
 
 
   G ^       
E|---3-3--------------------| 
B|---3-3--------------------| (daniel does a quick lick 
G|-4-4-4------------3-3--5--|  here similar to the end of the 
D|-5------7--7-7-7--3-3--5--|  first part of the chorus 
A|-5------7--7-7-7--1-1--3--|  only its on the 5th and 7th 
E|-3------5--5-5-5----------|  frets) 
 
   G ^       
E|---3-3------------------| 
B|---3-3------------------| 
G|-4-4-4------------3-3---| 
D|-5------7--7-7-7--3-3-3-| 
A|-5------7--7-7-7--1-1-3-| 
E|-3------5--5-5-5------1-| 
 
 
 G ^       
E|---3-3--------------| 
B|---3-3--------------| 
G|-4-4-4------------3-| 
D|-5------7--7-7-7--3-| 
A|-5------7--7-7-7--1-| 
E|-3------5--5-5-5----| 
 
Solo                                   ~~~~ 
E|-5-3-1h3-1h3-3-3-3-1-5-3--------------------------| 
B|-------------------------3b(1/2)------------------| 
G|---------------------------------5p3--------------| 
D|-------------------------------------5------------| 
A|--------------------------------------------------| 
E|------------------------------------------3h5p3---| 
daniel just basically goes up and down the pentatonics in the  
1/3 and 3/5 frets...thats all i could get for now...i'll try it again  
when i find time... 
 
 
_______________________________________________________ 
Contribuição: Amanda Sena([email protected]) 

	  

No existe una video leccione para esta canción

request
Aumentar uno tonoAumentar uno tono
Aumentar uno semi-tonoAumentar uno semi-tono
Disminuir uno semi-tonoDisminuir uno semi-tono
Disminuir uno tonoDisminuir uno semi-tono
LosAcordes
Buscar
auto avanzar rasgueos aumentar disminuir cambiar color esconder acordes gráficos
losacordes exhibir acordes losacordes youTube video losacordes ocultar tabs losacordes ir hacia arriba losacordes