Silverchair

Início > Silverchai... > acordes

Shade Tablatura

Silverchair

Dificultad:PrincipiantePrincipiante

tuner correct add songbook print version text version salvar en e-mail
acordesukuleletablaturabajobateriaarmónicaflautacavacopiano Guitar Pro
acordes

Shade

	   
  
Afinação 
standard (E A D G B E) 
 
 
INTRO 
E|-5-5--3---3-----3---3-0-0-0-0-0----0-0-| 
G|-6-6--3---3-0-0-1---1-0-0-1-1-1/3--3-3-| 
B|-7-7--0---0-0-0-0---0-0-0-2-2-2/4--4-4-| 
D|-7-7--2---2-0-0-2---2-----3-3-3/5--5-5-| 
A|-5-5--3---3-----0---0-----0-0-0--------| 
E|---------------------------------------| 
 
E|-----5----------3-----3-------3---3--0-0--0-0--0---0-0------| 
G|-----6----------3-----3--0-0--1---1--0-0--1-1--1/3-3-3-0--0-| 
B|-5h7---7-----0--0-----0--0-0--0---0--0-0--2-2--2/4-4-4-0--0-| 
D|-5h7-----7---0--2-----2-------2---2-------3-3--3/5-5-5-0--0-| 
A|-5--------------3-----3-------0---0-------0-0---------------| 
E|------------------------------------------------------------| 
 
E|------5------3---3-------3--3--0-0--0---0---0-------| 
G|-5h6--6------3---3--0-0--1--1--0-0--1---1/3-3--0--0-| 
B|-5h7--7--0-0-0---0--0-0--0--0--0-0--2---2/4-4--0--0-| 
D|-5h7--7--0-0-2---2-------2--2-------3---3/5-5--0--0-| 
A|-5-----------3---3-------0--0-------0---------------| 
E|----------------------------------------------------| 
 
E|------5--x-x-3----3-------3-----------x-x-| 
G|-5h6--6--x-x-3----3--0-0--1-----------x-x-| 
B|-5h7--7--x-x-0----0--0-0--0-----------x-x-| 
D|-5h7--7--x-x-2----2-------2-----2---------| 
A|-5-----------3----3-------0---0---0-3-----| 
E|------------------------------------------| 
 
VERSO (4x) 
E|-5--5---3---3---3--3-------1--1------3-| 
G|-6--6---3---3---1--1-------1--1------0-| 
B|-7--7---0---0---0--0--0-0--3--3---x--0-| 
D|-7--7---2---2---2--2--0-0--3--3---x--0-| 
A|-5--5---3---3---0--0-------1--1------2-| 
E|-------------------------------------3-| 
 
Antes do Refrão, toque isso: 
E|--------| 
G|--------| 
B|--------| 
D|--2-----| 
A|-0-0--3-| 
E|--------| 
 
Refrão (4x) 
E|-5---5-x-x-1---1-1-x-x--3---3-x-x-3---3-3---------|na 4ª vez,  |-3-| 
G|-6---6-x-x-1---1-1-x-x--3---3-x-x-3---3-3---------|pára no 1º: |-3-| 
B|-7---7-x-x-2---2-2-x-x--0---0-x-x-0---0-0---------|            |-0-| 
D|-7---7-x-x-3---3-3-x-x--2---2-x-x-0---0-0---------|            |-2-| 
A|-5---5-x-x-3---3-3-x-x--3---3-x-x-2---2-2-----3/5-|            |-3-| 
E|-----------1---1-1-x-x------------3---3-3-3h5-----|            |---| 
 
repete o verso 
repete refrão 
 
SOLO 
E|------------------------------------------| 
G|------------------------------------------| 
B|-------10---------------------------------| 
D|-10h12-----12--12-----------10------------| 
A|----------------------10h12---------------| 
E|--------------------------------10h12--10-| 
 
E|---------------------------------------| 
G|---------------------------------------| 
B|---------------------------10----------| 
D|-------12--------10-10h12----12p10----| 
A|----12-------8/12-------------------12-| 
E|-/10-----------------------------------| 
 
E|---------------------------------------------------------------| 
G|---------------------------------------------------------------| 
B|-----10-9~~~------10p9-7---7---7---7-9-9/10--9-10-10/12--10----| 
D|-10------------------------------------------------------------| 
A|---------------------------------------------------------------| 
E|---------------------------------------------------------------| 
 
E|-------------------------------------------| 
G|-------------------------------10h11p10----| 
B|-------10----------------10h12----------12-| 
D|-10h12----12-10----12----------------------| 
A|----------------12-------------------------| 
E|-------------------------------------------| 
 
E|----------------------------------------------------| 
G|----------------------------------------------------| 
B|-10/9-9---9h10--12--9h10----------------------------| 
D|----------------------------10--------10--------10-| 
A|--------------------------------10h12---------------| 
E|----------------------------------------------------| 
 
/ = slide 
h = hammer on 
p = pull off 
 
ponte 
E|-5--5--3-----------------x-x--5--5-----3---3--3-3-3--3--3-3---------| 
G|-6--6--3-----------------x-x--6--6-----3---3--3-3-3--3--3-3---------| 
B|-7-----0-----------------x-x--7--7-0-0-0---0--0-0-0--0--0-0---------| 
D|-7-----2--------2--------x-x--7--7-0-0-2---2--2-2-2--0--0-0---------| 
A|-5-----3------0---0--3--------5--5-----3---3--3-3-3--2--2-2-----3/5-| 
E|-----------------------------------------------------3--3-3-3h5-----| 
 
OUTRO--Toque o refrão e depois que o Daniel grita "Hidin', Hidin'" 
ligue a distortion. e faça isso: 
 
E|------------------x-x---------x-x--------x-x---------|na 4ª vez,  |---| 
G|------------6---6-x-x---------x-x--3---3-x-x-3---3-3-|pára no 1º: |-3-| 
B|------------7---7-x-x-2---2-2-x-x--0---0-x-x-0---0-0-|            |-0-| 
D|------------7---7-x-x-3---3-3-x-x--x---x-x-x-0---0-0-|            |-x-| 
A|------3/5---5---5-x-x-3---3-3-x-x--3---3-x-x-x---x-x-|            |-3-| 
E|--3h5-----------------1---1-1-x-x------------3---3-3-|            |---|     
 
 
acabe a música deixando soar essa nota  e|-5-|  
                                        B|-6-| 
                                        G|-7-| 
                                        D|-7-| 
                                        A|-5-| 
                                        E|---| 
 
 
 
Correção: Bruno Benelli ([email protected]) 

	  

No existe una video leccione para esta canción

request
Aumentar uno tonoAumentar uno tono
Aumentar uno semi-tonoAumentar uno semi-tono
Disminuir uno semi-tonoDisminuir uno semi-tono
Disminuir uno tonoDisminuir uno semi-tono
LosAcordes
Buscar
auto avanzar rasgueos aumentar disminuir cambiar color esconder acordes gráficos
losacordes exhibir acordes losacordes youTube video losacordes ocultar tabs losacordes ir hacia arriba losacordes