Shakey Graves

Início > Shakey Gra... > acordes

Unlucky Skin Tablatura

Shakey Graves

Dificultad:Ningún gradoNingún grado

bombaXXX

tuner correct add songbook print version text version salvar en e-mail
acordesukuleletablaturabajobateríaarmónicaflautacavacopiano Guitar Pro
acordes

Unlucky Skin

	  


Pt.1 (INTRO+VERSE) 

Intro + Pt.2: strum all strings with an emphasis on the tabbed melody 
Verse: strum 3rd, 4th, 5th & 6th string palm muted with the tabbed melody 

    d |----------------------------------------------------------------| 
    A |----------------------------------------------------------------| 
     F#|----------------------------------------------------------------|  
    D |2h4-4-4-2p0---------------------2h4-4-4-2p0---------------------| 
    A |------------0-----------0-------------------2~----------2~------| 
    D |----------------------------------------------------------------| 
count: 1   _   2   _   3   _   4   _   1   _   2   _   3   _   4   _ 
strum: d   d u d   d     u d u d   d u d   d u d   d     u d u d   d u 

    d |----------------------------------------------------------------| 
    A |----------------------------------------------------------------| 
     F#|----------------------------------------------------------------|  
    D |2h4-4-4-2p0---------------------2h4-4-4-2p0-0-----------0-------| 
    A |------------0-----------0---------------------------------------| 
    D |----------------------------------------------------------------| 
count: 1   _   2   _   3   _   4   _   1   _   2   _   3   _   4   _ 
strum: d   d u d   d     u d u d   d u d   d u d   d     u d u d   d u 

    d |----------------------------------------------------------------| 
    A |------------0-----------0---------------------------------------| 
     F#|------------0-----------0---------------------------------------|  
    D |2h4-4-4-2p0---------------------2h4-4-4-2p0---------------------| 
    A |--------------------------------------------2~----------2~------| 
    D |----------------------------------------------------------------| 
count: 1   _   2   _   3   _   4   _   1   _   2   _   3   _   4   _ 
strum: d   d u d   d     u d u d   d u d   d u d   d     u d u d   d u 

    d |----------------------------------------------x*----------------| 
    A |----------------------------------------------x*----------------| 
     F#|----------------------------------------------x*----------------|  
    D |2h4-4-4-2p0---------------------2h4-4-4-2p0-0-x*----------------| 
    A |------------0-----------0---------------------x*----------------| 
    D |----------------------------------------------x*----------------| 
count: 1   _   2   _   3   _   4   _   1   _   2   _   3   _   4   _ 
strum: d   d u d   d     u d u d   d u d   d u d   d      


Pt.2 

    d |0---0-0-0---0-----0-0-0-0---0-0-0---0-0-0---0-----0-0-0-0---0-0-| 
    A |0---0-0-0---0-----0-0-0-0---0-0-0---0-0-0---0-----0-0-0-0---0-0-| 
     F#|1~*-1-1-1---1~*---1-1-1-1---1-1-1~*-1-1-1---1~*---1-1-1-1---1-1-|  
    D |0---0-0-0---0-----0-0-0-0---0-0-0---0-0-0---0-----0-0-0-0---0-0-| 
    A |2---2-2-2---2-----2-2-2-2---2-2-2---2-2-2---2-----2-2-2-2---2-2-| 
    D |0---0-0-0---0-----0-0-0-0---0-0-0---0-0-0---0-----0-0-0-0---0-0-| 
count: 1   _   2   _   3   _   4   _   1   _   2   _   3   _   4   _ 
strum: d   d u d   d     u d u d   d u d   d u d   d     u d u d   d u 

    d |----------------------------------------------------------------| 
    A |----------------------------------------------------------------| 
     F#|----------------------------------------------------------------|  
    D |--------------------------------------------2p0---------0-------| 
    A |----------------------------------------------------------------| 
    D |0-----------2p0---------0---------------------------------------| 
count: 1   _   2   _   3   _   4   _   1   _   2   _   3   _   4   _ 
strum: d   d u d   d     u d u d   d u d   d u d   d     u d 
  
    d |----------------------------------------------------------------| 
    A |----------------------------------------------------------------| 
     F#|----------------------------------------------------------------|  
    D |--------------------------------------------2p0-----------------| 
    A |----------------------------------------------------------------| 
    D |0-----------2p0---------0-------------------------------0-------| 
count: 1   _   2   _   3   _   4   _   1   _   2   _   3   _   4   _ 
strum: d   d u d   d     u d u d   d u d   d u d   d     u d u d   d u 

    d |0---0-0-0---0-----0-0-0-0---0-0-0---0-0-0---0-----0-0-0-0---0-0-| 
    A |0---0-0-0---0-----0-0-0-0---0-0-0---0-0-0---0-----0-0-0-0---0-0-| 
     F#|1~*-1-1-1---1~*---1-1-1-1---1-1-1~*-1-1-1---1~*---1-1-1-1---1-1-|  
    D |0---0-0-0---0-----0-0-0-0---0-0-0---0-0-0---0-----0-0-0-0---0-0-| 
    A |2---2-2-2---2-----2-2-2-2---2-2-2---2-2-2---2-----2-2-2-2---2-2-| 
    D |0---0-0-0---0-----0-0-0-0---0-0-0---0-0-0---0-----0-0-0-0---0-0-| 
count: 1   _   2   _   3   _   4   _   1   _   2   _   3   _   4   _ 
strum: d   d u d   d     u d u d   d u d   d u d   d     u d u d   d u 

    d |----------------------------------------------------------------| 
    A |----------------------------------------------------------------| 
     F#|----------------------------------------------------------------|  
    D |--------------------------------------------2p0---------0-------| 
    A |----------------------------------------------------------------| 
    D |0-----------2p0---------0---------------------------------------| 
count: 1   _   2   _   3   _   4   _   1   _   2   _   3   _   4   _ 
strum: d   d u d   d     u d u d   d u d   d u d   d     u d 

    d |--------------------------x*----| 
    A |--------------------------x*----| 
     F#|--------------------------x*----|  
    D |--------------------------x*----| 
    A |--------------------------x*----| 
    D |0-----------2p0---------0-x*----| 
count: 1   _   2   _   3   _   4   _    
strum: d   d u d   d     u d u d    


Pt.3 

    d |0---0---0---0---0---0---0---0---0---0---0---0---0---0---0---0---| 
    A |1---1---1---1---1---1---1---1---1---1---1---1---1---1---1---1---| 
     F#|0---0---0---0---0---0---0---0---0---0---0---0---0---0---0---0---|  
    D |0---0---0---0---0---0---0---0---0---0---0---0---0---0---0---0---| 
    A |1---1---1---1---1---1---1---1---1---1---1---1---1---1---1---1---| 
    D |0---0---0---0---0---0---0---0---0---0---0---0---0---0---0---0---| 
count: 1   _   2   _   3   _   4   _   1   _   2   _   3   _   4   _ 
strum: d   d   d   d   d   d   d   d   d   d   d   d   d   d   d   d  

    d |0---0---0---0---0---0---0---0---0---0---0---0---0---0---0---0---| 
    A |0---0---0---0---0---0---0---0---0---0---0---0---0---0---0---0---| 
     F#|0---0---0---0---0---0---0---0---0---0---0---0---0---0---0---0---|  
    D |0---0---0---0---0---0---0---0---0---0---0---0---0---0---0---0---| 
    A |0---0---0---0---0---0---0---0---0---0---0---0---0---0---0---0---| 
    D |0---0---0---0---0---0---0---0---0---0---0---0---0---0---0---0---| 
count: 1   _   2   _   3   _   4   _   1   _   2   _   3   _   4   _ 
strum: d   d   d   d   d   d   d   d   d   d   d   d   d   d   d   d  


Pt.4 

    d |0---x---x---x---x---x---x---x---x---x---x---x---x---x---x---0-0-| 
    A |0---x---x---x---x---x---x---x---x---x---x---x---x---x---x---0-0-| 
     F#|0---x---x---x---x---x---x---x---x---x---x---x---x---x---x---0-0-|  
    D |0---x---x---x---x---x---x---x---x---x---x---x---x---x---x---0-0-| 
    A |0---x---x---x---x---x---x---x---x---x---x---x---x---x---x---0-0-| 
    D |0---x---x---x---x---x---x---x---x---x---x---x---x---x---x---0-0-| 
count: 1   _   2   _   3   _   4   _   1   _   2   _   3   _   4   _ 
strum: d   d   d   d   d   d   d   d   d   d   d   d   d   d   d   d u 

    d |0---x---x---x---x---x---x---x---x---x---x---x---x---x---x---0-0-| 
    A |0---x---x---x---x---x---x---x---x---x---x---x---x---x---x---0-0-| 
     F#|1---x---x---x---x---x---x---x---x---x---x---x---x---x---x---1-1-|  
    D |0---x---x---x---x---x---x---x---x---x---x---x---x---x---x---0-0-| 
    A |2---x---x---x---x---x---x---x---x---x---x---x---x---x---x---2-2-| 
    D |0---x---x---x---x---x---x---x---x---x---x---x---x---x---x---0-0-| 
count: 1   _   2   _   3   _   4   _   1   _   2   _   3   _   4   _ 
strum: d   d   d   d   d   d   d   d   d   d   d   d   d   d   d   d u 

************************************ 

| PM  Palm Mute 
| h   hammer-on 
| p   pull-off 
| ~   vibrato 
| x*  Mute strings 
| x   Strum muted strings 
| b   Bend 

|*    vibrato or bend as a variation 


************************************ 
	  

No existe una video leccione para esta canción

request
LosAcordes
Buscar
auto avanzar rasgueos aumentar disminuir cambiar color esconder acordes gráficos
losacordes exhibir acordes losacordes youTube video losacordes ocultar tabs losacordes ir hacia arriba losacordes