Roupa Nova

Início > Roupa Nova > acordes

Dona Tablatura

Roupa Nova

Dificultad:PrincipiantePrincipiante

gabrielsotnas

tuner correct add songbook print version text version salvar en e-mail
acordesukuleletablaturabajobateríaarmónicaflautacavacopiano Guitar Pro
acordes

Dona

Áño: 2004 - Álbum: I Love MPB: Deixa O Amor Acontecer

(Sá / Guarabyra)

Tono:  G Más
Dona Key DD
Dona Key D#D#
Dona Key EE
Dona Key FF(Disminuir uno tono)
Dona Key F#F#(Disminuir uno semi-tono)
Dona Key GG(tono original)
Dona Key G#G#(Aumentar uno semi-tono)
Dona Key AA(Aumentar uno tono)
Dona Key A#A#
Dona Key BB
Dona Key CC
Dona Key C#C#
	  E---------------12--10--8------------- 
B------------12------------12--10--12- 
G----12---12-------------------------- 
D--12---12---------------------------- 
A------------------------------------- 
E------------------------------------- 
 
E-------------12--10--8---------3- 
B----------12-----------12--10--3- 
G--12---12----------------------0- 
D-----12------------------------0- 
A-------------------------------2- 
E-------------------------------3- 
 
      G G/B C C/D... 
 

	  

No existe una video leccione para esta canción

request
Aumentar uno tonoAumentar uno tono
Aumentar uno semi-tonoAumentar uno semi-tono
Disminuir uno semi-tonoDisminuir uno semi-tono
Disminuir uno tonoDisminuir uno semi-tono
LosAcordes
Buscar
auto avanzar rasgueos aumentar disminuir cambiar color esconder acordes gráficos
losacordes exhibir acordes losacordes youTube video losacordes ocultar tabs losacordes ir hacia arriba losacordes