Punch Brothers

Início > Punch Brot... > acordes

Another New World Tablatura

Punch Brothers

Dificultad:Ningún gradoNingún grado

tercmoraes

tuner correct add songbook print version text version salvar en e-mail
acordesukuleletablaturabajobateríaarmónicaflautacavacopiano Guitar Pro
acordes

Another New World

	  
Intro 
(Arrpegiated) 
Mandolin Part (Original Pitch):   
   Dm      F      Em7  A7     Dm   C    Bb (Bb/G) A7 
e|--14------12-----15---15--|--17---20---18---18---17--| 
B|-(15)---------------------|--------------------------| 
G|--13------14-----12-------|--14---17---15---15---14--| 
D|--12------15-----14---14--|--15---19---17---17---14--| 
A|----------------------12--|--------------------------| 
E|--------------------------|--------------------------| 

I Also like playing it down an octave: 
e|--1---0---3---3---5---8---6---5---| 
B|-(3)--------------------------2---| 
G|--2---2---0-------2---5---3---2---| 
D|--0---3---2---2---3---7---5-------| 
A|--------------0-------------------| 
E|----------------------------------| 

Verse 
    Dm   Em7B5  A7    Dm    D    Gm/D  C/E   F/C  A7/C#   Dm   
e|--14----15----15----14--|--14----17----20----12--15------14--| 
B|-(15)-------------------|-------------------------------(15)-| 
G|--13----12----------13--|--14----14----17----14----------13--| 
D|--12----14----14----12--|--12----15----19----15--12------12--| 
A|--------------12--------|-------(14)-------------14----------| 
E|------------------------|------------------------------------| 

Bridge 
    Dm    C    Bb   A7 
e|--14----20---18---17--| 
B|-(15)-----------------| 
G|--13----17---15---14--| 
D|--12----19---17---14--| 
A|----------------------| 
E|----------------------| 

Outro 
    Em7   Dm   C    F    A7 
e|--15----14---20---12---17--| 
B|-------(15)----------------| 
G|--12----13---17---14---14--| 
D|--14----12---19---15---14--| 
A|---------------------------| 
E|---------------------------| 



************************************ 

| (n) Ghost note 

************************************ 
	  

No existe una video leccione para esta canción

request
Aumentar uno tonoAumentar uno tono
Aumentar uno semi-tonoAumentar uno semi-tono
Disminuir uno semi-tonoDisminuir uno semi-tono
Disminuir uno tonoDisminuir uno semi-tono
LosAcordes
Buscar
auto avanzar rasgueos aumentar disminuir cambiar color esconder acordes gráficos
losacordes exhibir acordes losacordes youTube video losacordes ocultar tabs losacordes ir hacia arriba losacordes