Maná

Início > Maná > acordes

Labios compartidos Tablatura

Maná

Dificultad:PrincipiantePrincipiante

Limaum

tuner correct add songbook print version text version salvar en e-mail
acordesukuleletablaturabajobateríaarmónicaflautacavacopiano Guitar Pro
acordes

Labios compartidos

Áño: 2006 - Álbum: Amar Es Combatir

	  Intro:Cm - D# - A# - Fm 
        *1 
  Cm  D#  A#          F                  Cm  D# A# 
Amor mió,     si estoy debajo del vaivén de tus piernas 
             F                    Cm    D#   A# 
Si estoy hundido en un vaivén de caderas 
          F          *2   Cm  D#  A# 
Esto es el cielo, es mi cielo 
 
    *1 Cm   D#   A# 
Amor Fugado,      me tomas, me dejas, 
       F                  Cm  D# 
Me exprimes y me tiras a un lado 
A#                      F              Cm  D#  A# 
Te vas a otro cielo y regresas como los colibrís 
            F          *3    Cm   D#  A# 
Me tienes como un perro a tus pies 
 
Gm *4                   G# 
Otra vez mi boca insensata, 
           D#          A# 
Vuelve a caer en tu piel 
Gm *5                     G# 
Vuelve a mí tu boca y provoca 
           D#                            A# 
Vuelvo a caer de tus pechos a tu par de pies 
 
(aki los tonos son arpegiados) 
             G#                A# 
Labios compartidos, Labios divididos mi amor, 
D#                         Cm 
Yo no puedo compartir tus labios 
                 G#                    A# 
Ni comparto el engaño, Ni comparto mis días ni el dolor 
D#                          Cm 
Yo no puedo compartir tus labios. 
 
G#           A#                 Cm 
Oh amor...  oh amor ...     Compartidos 
 
        Cm   D#  A# 
Amor mutante,     amigos con derecho 
                F             Cm   D#   A# 
y sin derecho de tenerte siempre 
                F                Cm  D#   A# 
Y siempre tengo que esperar paciente 
            F             Cm   D#   A# 
El pedazo que me toca de ti. 
 
F  *6           Cm D# A#            F           Cm  D#  A# 
Relámpagos y halcón   las voces solas lloran en el sol  Eh! 
    F                 Cm    D#          A# 
Mi boca en llamas torturada, te desnudas angelada 
F          Cm  *7 
Luego te vas. 
 
Gm   *4                 G# 
Otra vez mi boca insensata, 
           D#               A# 
Vuelve a caer en tu piel de miel 
 
Gm    *5                  G# 
Vuelve a mí tu boca y provoca 
           D#                            A# 
Vuelvo a caer de tus pechos a tu par de pies 
 
 
             G#                A# 
Labios compartidos, Labios divididos mi amor, 
D#                         Cm 
Yo no puedo compartir tus labios 
                 G#                    A# 
Ni comparto el engaño, Ni comparto mis días ni el dolor 
D#                          Cm 
Yo no puedo compartir tus labios. 
 
               G#                         A# 
Que me parta un rayo, Que me entierre el olvido mi amor 
  D#                     Cm 
Pero no puedo más, Compartir tus labios 
 G#                  A#                    Cm 
Compartir tus besos,      Labios compartidos 
 
(en esta parte va entrando *8) 
 
   Cm       D#      A#        F 
Te amo con toda mi fe sin medidas 
  Cm          D#        A# 
Te amo aunque estés compartida, 
 F 
tus labios tienen en mi el control 
 
    Cm       D#      A#        F 
Te amo con toda mi fe sin medidas 
  Cm          D#        A# 
Te amo aunque estés compartida, 
 F 
Que si le estoy con el control 
 
        *1                          *2 
E||------------------|----------------------11--10--8--| 
B||---8-----8--------|--8-----8------------------------| 
G||------8-----------|-----8------------10-------------| 
D||------------8-----|-----------8--/8-----------------| 
A||------------------|---------------------------------| 
E||------------------|---------------------------------| 
 
            *3                      *4 
E||---------------------|-------------------------6----| 
B||--------------8------|----8------9------9----8------| 
G||--6/8--8--10-----10--|--8------8------8----8--------| 
D||---------------------|------8------6----------------| 
A||---------------------|------------------------------| 
E||---------------------|------------------------------| 
 
              *5 
E||-----------------------6-----| 
B||----8------9------9--------6-| 
G||--8------8------8----8---8---| 
D||------8------6---------------| 
A||-----------------------------| 
E||-----------------------------| 
 
            *6                           *7 
E||--------------------------|-------------------------| 
B||--9-9-------11-11----9-8--|---------6------8-8-6----| 
G||------12-12-------12------|-------8--------------8--| 
D||--------------------------|-8-8-8-----8-8-8---------| 
A||--------------------------|-------------------------| 
E||--------------------------|-------------------------| 
 
                    *8 
E||-------------------------8-10-11-/13----------------| 
B||------------------8-9-11----------------------------| 
G||---5-7-8-5-7-8-10-----------------------------------| 
D||----------------------------------------------------| 
A||----------------------------------------------------| 
E||----------------------------------------------------| 
 
  
 

	  

labios-compartidos-by-mana Play

Existe una video leccione para esta canción

view more
Aumentar uno tonoAumentar uno tono
Aumentar uno semi-tonoAumentar uno semi-tono
Disminuir uno semi-tonoDisminuir uno semi-tono
Disminuir uno tonoDisminuir uno semi-tono
LosAcordes
Buscar
auto avanzar rasgueos aumentar disminuir cambiar color esconder acordes gráficos
losacordes exhibir acordes losacordes youTube video losacordes ocultar tabs losacordes ir hacia arriba losacordes