Maná

Início > Maná > acordes

Hechicera ( ver.2) Tablatura

Maná

Dificultad:Ningún gradoNingún grado

europeu

tuner correct add songbook print version text version salvar en e-mail
acordesukuleletablaturabajobateríaarmónicaflautacavacopiano Guitar Pro
acordes

Hechicera ( ver.2)

	   2 veces         varias veces  
E------5--5--5------|---------------------------------------|------------ 
B------5--5--5--7^--|---------------------------------------|------------ 
G-T----5--5--5--7^--|-2-x-2-x-4-5--2-x-2-x-2-x--4-5-4-------|------------ 
D-A-----------------|---------------------------------------|------------ 
A-B-----------------|---------------------------------------|------------ 
E-------------------|---------------------------------------|------------ 
 
 Hay que bonitos ojos...       Es  una hechicera ... 
 
E-1-1-1---|---5-5-5--|------------------------------------------------------------- 
B-3-3-3---|---6-6-6--|----------------------------------3-------------------------- 
G-2-2-2---|---5-5-5--|--2-x-2-x-4-5---2-x-2-x-4-5---2-x-2-x-4-5-5--4-5--5-4-5-4-2-- 
D---------|----------|------------------------------------------------------------- 
A---------|----------|------------------------------------------------------------- 
E---------|----------|------------------------------------------------------------- 
 
1er. SOLO CLASICO ( tocalo con los dedos,sin espiga para que se oiga mejor) 
 
E-------------------------------------------------8-8-8--------------3sl/7-5------- 
B------------------8------------------------5-5-5----------4sl/5-3-1--------------- 
G---------7-9-10-----10-9-7-10-9-9------------------------------------------------- 
D-7-9-10--------------------------------------------------------------------------- 
A---------------------------------------------------------------------------------- 
E---------------------------------------------------------------------------------- 
 
    2o. SOLO CLASICO 
 
E---------------------------------------------------------------------------------- 
B---------------------------------------------------------------------------------- 
G-------------------------------------------------------11sl/12-10-9-9-7-7-5-9-10-9 
D-9*10*9*9*10*9*9* (en un solo movimiento)--8-8-8-10-11---------------------------- 
A---------------------------------------------------------------------------------- 
E---------------------------------------------------------------------------------- 
 
                                                                                          
mas lento   
 
E-------8-8-8-------7-7-----5sl/10-10--5-7-8-10-12-13-15-13-12-10-13-12-12--------- 
B-5-5-5-------5-5-5-----5-5-------------------------------------------------------- 
G---------------------------------------------------------------------------------- 
D---------------------------------------------------------------------------------- 
A---------------------------------------------------------------------------------- 
E---------------------------------------------------------------------------------- 
 

	  

No existe una video leccione para esta canción

request
LosAcordes
Buscar
auto avanzar rasgueos aumentar disminuir cambiar color esconder acordes gráficos
losacordes exhibir acordes losacordes youTube video losacordes ocultar tabs losacordes ir hacia arriba losacordes