Madina Lake

Início > Madina Lak... > acordes

Imagineer Tablatura

Madina Lake

Dificultad:Ningún gradoNingún grado

brunblazkowski

tuner correct add songbook print version text version salvar en e-mail
acordesukuleletablaturabajobateríaarmónicaflautacavacopiano Guitar Pro
acordes

Imagineer

	  Imagineer 
Madina Lake 

My attempt. :) 

Intro 
E|---------| 
B|---------| 
G|---------| 
D|-8-0-5-7-| x4 
A|---------| 
D|---------| 

E|---------| 
B|---------| 
G|---------| 
D|-7-0-5-7-| x4 
A|---------| 
D|---------| 

Repeat this, when it's beingt repeated the true guitar starts becoming audible in background 

Main Riff 
In a similar vein to the intro 
E|---------| 
B|---------| 
G|---------| 
D|-8-0-5-7-| x4 
A|-8-0-5-7-| 
D|-8-0-5-7-| 

E|---------| 
B|---------| 
G|---------| 
D|-7-0-5-7-| x4 
A|-7-0-5-7-| 
D|-7-0-5-7-| 

Again, repeat this before the verse. 

Verse 
This is the main riff palm muted, followed by these chords and then the Chorus 
E|---------| 
B|---------| 
G|---------| 
D|-9-7-9-7-| 
A|-9-7-9-7-| 
D|-9-7-9-7-| 

Chorus 
E|------------------------------------------------------| 
B|------------------------------------------------------| 
G|----7----------------------------------8----5----6----| 
D|----7-x8-7----8----3----4----5----0----8-x8-5-x6-6-x2-| 
A|----5----7-x8-8-x8-3-x6-4-x2-5-x8-0-x8-6----3----4----| 
D|---------7----8----3----4----5----0-------------------| 
Played twice 
Followed by: 
E|-------------------------------------------------| 
B|-------------------------------------------------| 
G|---------7----5----2-----------------------------| 
D|----0----7----5-x6-2-x2-8--0--5--7--8--0--5--7---| 
A|----0----5----3----0----8--0--5--7--8--0--5--7---| 
D|----0-------------------8--0--5--7--8--0--5--7---| 
                         |------Palm Mute----------| 
Played twice ended by 
D|----5----| 
A|----5----| 
D|----5----| 

Repeat Main Riff 
Repeat Verse 

Repeat Chorus 
but after the final power chord, play another: 
D|----3----| 
A|----3----| 
D|----3----| 

Bridge 
Not too sure about this part, but I'm pretty sure it's this on the low D. 
D|--xx-12---10-12-10--/15-- x4 

Repeat Chorus 

End with 
E|-----------------------------------------------------| 
B|-----------------------------------------------------| 
G|-----------------------------------------------------| 
D|--8--0--5--7--8--0--5--7--8--0--5--7--8--0--5--7--7\-| 
A|--8--0--5--7--8--0--5--7--8--0--5--7--8--0--5--7--7\-| 
D|--8--0--5--7--8--0--5--7--8--0--5--7--8--0--5--7--7\-| 
	  

No existe una video leccione para esta canción

request
LosAcordes
Buscar
auto avanzar rasgueos aumentar disminuir cambiar color esconder acordes gráficos
losacordes exhibir acordes losacordes youTube video losacordes ocultar tabs losacordes ir hacia arriba losacordes