Loreena McKennitt

Início > Loreena Mc... > acordes

Breaking The Silence Tablatura

Loreena McKennitt

Dificultad:Ningún gradoNingún grado

tamamoreira

tuner correct add songbook print version text version salvar en e-mail
acordesukuleletablaturabajobateríaarmónicaflautacavacopiano Guitar Pro
acordes

Breaking The Silence

	  
Intro 

E||-8~~~8--//-------------------//-------------6/8---------|| 
B||--------//---------------8---//-----------8-----6-------|| 
G||--------//-------------8-----//---------8---------8-----|| 
D||--------//--------8-10-------//----8/10-------------10--|| 
A||--------//---8-10------------//-------------------------|| 
E||--------//-------------------//-------------------------|| 

E||---------------8-10-11-8----//--------------------------|| 
B||-------------8--------------//-------------------11-8---|| 
G||-----------8----------------//----8---------8-10--------|| 
D||------8-10------------------//---------8-10-------------|| 
A||-8-10-----------------------//------10------------------|| 
E||----------------------------//--------------------------|| 

main guitar part (repeated throughout the whole song) 

E||-------3--------3-|-------3----4----3--|| 
B||-----4--------4---|-----4--------------|| 
G||---5--------3-----|---3----------------|| 
D||------------------|----------3----5----|| 
A||-3--------5-------|-6------------------|| 
E||------------------|--------------------|| 

Some variations are played on the arpeggios: 

E||-----3--------3---|-------3----4----3--|| 
B||-------4--------4-|-----4--------------|| 
G||---5--------3-----|---3----------------|| 
D||------------------|----------3----5----|| 
A||-3--------5-------|-6------------------|| 
E||------------------|--------------------|| 

E||-------3----------|-------3----4----3--|| 
B||---4----------4---|-----4--------------|| 
G||-----5------3---3-|---3----------------|| 
D||------------------|----------3----5----|| 
A||-3--------5-------|-6------------------|| 
E||------------------|--------------------|| 

Guitar solo 

E||--------|---------------------------------------|| 
B||-7-8----|----------------11-9-8-----8-8-8-8-8---|| 
G||-----10-|-----------8-10--------10--------------|| 
D||--------|------8-10-----------------------------|| 
A||--------|-8-10----------------------------------|| 
E||--------|---------------------------------------|| 



E||---11-10-------|----------11-13-11-10-----------|| 
B||--x------13-11-|----11-13-------------13--------|| 
G||-x-------------|-12-----------------------------|| 
D||---------------|--------------------------------|| 
A||---------------|--------------------------------|| 
E||---------------|--------------------------------|| 

	Very, very fast! 
   ________________________________ 
   |				  | 

E||-------------------------8-10-11-----------------|| 
B||------------------8-9-11-----------------------8-|| 
G||-------------8-10----------------------8-10-11---|| 
D||------8-9-10----------------------8-10-----------|| 
A||-8-10--------------------------------------------|| 
E||-------------------------------------------------|| 

E||----------8-10-----------------------------------|| 
B||-8-8-8-11----------------------------------------|| 
G||------------------I'm missing the last measure---|| 
D||------------------(because I'm sloppy :)---------|| 
A||-------------------------------------------------|| 
E||-------------------------------------------------|| 
	  

No existe una video leccione para esta canción

request
LosAcordes
Buscar
auto avanzar rasgueos aumentar disminuir cambiar color esconder acordes gráficos
losacordes exhibir acordes losacordes youTube video losacordes ocultar tabs losacordes ir hacia arriba losacordes