Kiss

Início > Kiss > acordes

Time Traveler Tablatura

Kiss

Dificultad:Ningún gradoNingún grado

LINEKERS

tuner correct add songbook print version text version salvar en e-mail
acordesukuleletablaturabajobateríaarmónicaflautacavacopiano Guitar Pro
acordes

Time Traveler

	  
Intro Part 1 
e|-------------------------------------------------| 
B|-------------------------------------------------| 
G|-------------------------------------------------| 
D|-3~~~----3~~~----3~~~----3~~~----3~~~------------| 
A|-3~~~----3~~~----3~~~----3~~~----3~~~------------| 
E|-1~~~----1~~~----1~~~----1~~~----1~~~------------| 

Intro Part 2 
e|----------------------------| 
B|----------------------------| 
G|-2--------------------------| 
D|-2----3----5----------------| 
A|-0----3----5----------------| 
E|------1----3----------------| X 4 

Verse 
e|-----------------------------------------------------------| 
B|-----------------------------------------------------------| 
G|--2~~~~~----5~~~~~----7~~~~~-------------------------------| 
D|--2~~~~~----5~~~~~----7~~~~~----3~~~~~---------------------| 
A|--0~~~~~----3~~~~~----5~~~~~----3~~~~~---------------------| 
E|--------------------------------1~~~~~---------------------| X 2 

Pre-Chorus 
e|-----------------------------------------------| 
B|-----------------------------------------------| 
G|--9---5---7------------------------------------| 
D|--9---5---7--X3-----3~~~~~---------------------| 
A|--7---3---5---------3~~~~~---------------------| 
E|--------------------1~~~~~---------------------| 

Chorus 
e|----------------------------| 
B|----------------------------| 
G|-2--------------------------| 
D|-2----3----5----------------| 
A|-0----3----5----------------| 
E|------1----3----------------| X 4 

Post-Chorus 
e|---------------------------------------------------------------| 
B|---------------------------------------------------------------| 
G|---------------------------------------------------------------| 
D|--3------------------------------------------------------------| 
A|--3------------------------------------------------------------| 
E|--1-1-1-1-1-1-1-1-1-1-1-1-1-1-1-1-1----------------------------| 

  PM* * * * * * * * * * * * * * * * * 

verse 2 
e|--------------------------------| 
B|--------------------------------| 
G|--2~~-5~~~----------------------| 
D|--2~~-5~~~--5~~-3~~-------------| 
A|--0~~-3~~~--5~~-3~~-------------| 
E|------------3~~-1~~-------------| X 2 

Pre-Solo 
e|---------------------------------------------------------------| 
B|---------------------------------------------------------------| 
G|---------------------------------------------------------------| 
D|--3------------------------------------------------------------| 
A|--3------------------------------------------------------------| 
E|--1-1-1-1-1-1-1-1-1-1-1-1-1-1-1-1-1----------------------------| X 4 
  PM* * * * * * * * * * * * * * * * * 

Solo 
(If anyone knows the solo that Bruce plays, then please let me know or add it yourself) 
e|----------------------------| 
B|----------------------------| 
G|-2--------------------------| 
D|-2----3----5----------------| 
A|-0----3----5----------------| 
E|------1----3----------------| X 6 

Post-Solo 
e|---------------------------------------------------------------| 
B|---------------------------------------------------------------| 
G|---------------------------------------------------------------| 
D|--3------------------------------------------------------------| 
A|--3------------------------------------------------------------| 
E|--1-1-1-1-1-1-1-1-1-1-1-1-1-1-1-1-1----------------------------| X 4 
  PM* * * * * * * * * * * * * * * * * 

Outro 
e|----------------------------| 
B|----------------------------| 
G|-2--------------------------| 
D|-2----3----5----------------| 
A|-0----3----5----------------| 
E|------1----3----------------| Until Fade Out  

************************************ 

| ~  Vibrato 

************************************ 
	  

No existe una video leccione para esta canción

request
LosAcordes
Buscar
auto avanzar rasgueos aumentar disminuir cambiar color esconder acordes gráficos
losacordes exhibir acordes losacordes youTube video losacordes ocultar tabs losacordes ir hacia arriba losacordes