Kiss

Início > Kiss > acordes

Deuce Tablatura

Kiss

Dificultad:PrincipiantePrincipiante

tuner correct add songbook print version text version salvar en e-mail
acordesukuleletablaturabajobateriaarmónicaflautacavacopiano Guitar Pro
acordes

Deuce

Áño: 1978 - Álbum: Alive! Box Set

	   
Intro: 
parte 1: 
e-|----------------------------|     2 vezes 
b-|----------------------------| 
g-|------14--14-14---14-14-14--| 
d-|------14--14-16---14-16-14--| 
a-|--0-------------------------| 
E-|----------------------------| 
        {deixe soando a quinta corda} 
 
final parte 1 (1ºvez) 
e-|------| 
b-|------| 
g-|------| 
d-|--10--| 
a-|--10--| 
E-|------| 
 
 
e-|-------------------------------------------| 
b-|-------------------------------------------| 
g-|---------10---------------12--12-----------| 
d-|--10-----10---12----------12--14p12--------| 
a-|--10h12-------12--12h14---------------14---| 
E-|-------------------------------------------| 
 
toca parte 1 (sem "final parte 1") 
 
e-|---------------------------------------------------| 
b-|---------------------------------------------------| 
g-|-----------10--------------------------------------| 
d-|---10------10----10--------------------------------| 
a-|---10h12---------10--------------------------------| 
E-|---------------------------------------------------| 
 
Riff 1 : 
e-|-------------------------|--------------------------| 
b-|-------------------------|--------------------------| 
g-|-----------5-5-5---7-5--|--5-5--5h7-----------------| 
d-|--7-7-7---5-5-5---7-5--|--5-5--5h7---7-5--7---------| 
a-|--7-7-7-----------------|--------------7-5--7-------| 
E-|------------------------|---------------------------| 
 
Riff 2:  
e-|---------------------------------------------------| 
b-|---------------------------------------------------| 
g-|---------------------------------------------------| 
d-|---------------------------------------------------| 
a-|---------3---5---3---------------------------------| 
E-|--5------------------------------------------------| 
 
Riff 3: 
e-|---------------------------------------------------| 
b-|---------------------------------------------------| 
g-|---------------------------------------------------| 
d-|---------------------------------------------------| 
a-|------3-4-5-------3-4-5----------------------------| 
E-|--3~---------3~------------------------------------| 
 
Riff 4: (+ ou - assim...) 
e-|---------------------------------------------------| 
b-|---------------------------------------------------| 
g-|---------------------------------------------------| 
d-|---------------------------------------------------| 
a-|---------------------------------------------------| 
E-|--1----3--------------------------------5----------| 
 
Letra: 
 
Intro 
Riff 1 
 
Riff 2  Riff 1 
Get up, and get your grandma outta here 
Riff 2  Riff 1 
Pick up, old Jim is workin' hard this year 
Riff 4 
And baby, do the things he says to do 
 
Riff 3 
Baby, if you're feeling good 
Riff 3 
And baby if you're feeling nice 
Riff 4 
You know your man is workin' hard 
He's worth a deuce 
 
Riff 2 
 
Honey, don't put your man behind his years 
And baby, stop cryin' all your tears 
Baby, do the things he says to do 
Do it 
 
Baby, if you're feeling good 
And baby if you're feeling nice 
You know your man is workin' hard 
He's worth a deuce 
 
Solo 
 
And baby, if you're feeling good 
Yes baby if you're feeling nice 
You know your man is workin' hard 
 
Yeah 
(fade out) 
 
O solo eu ñ tirei, porém ñ parece muito dificil, o Ace Frelhey usa a escala pentatonica de Lá (pode-se usar a 
menor para dar um toque mais "blues" a musica  como a maioria dos guitarristas dos anos 70 faziam).Minha 
Sugestão é que vc imporvise em cima da escala pentatonica de Lá menor e use este lick bem conhecido de  
 todos e famoso por ser muito utilizado por guitarristas como Eric Clapton,Angus Young,Slash,Jimi Hendrix, 
Ace Frelhey etc... 
 
e-|-15-------------15----------| 
b-|----20-15-20b----20--15-----| 
g-|--------------------------19| 
d-|----------------------------| 
a-|----------------------------| 
E-|----------------------------| 
 
Notação: 
h - hammer on 
p - pull off 
b - bend 
 
 
_______________________________________________________ 
Contribuição: Adalberto([email protected]) 

	  

No existe una video leccione para esta canción

request
LosAcordes
Buscar
auto avanzar rasgueos aumentar disminuir cambiar color esconder acordes gráficos
losacordes exhibir acordes losacordes youTube video losacordes ocultar tabs losacordes ir hacia arriba losacordes