Kiss

Início > Kiss > acordes

A Million To One Tablatura

Kiss

Dificultad:Ningún gradoNingún grado

aleffederico

tuner correct add songbook print version text version salvar en e-mail
acordesukuleletablaturabajobateríaarmónicaflautacavacopiano Guitar Pro
acordes

A Million To One

Áño: 1983 - Álbum: Lick It Up

	  


Rhythm Fig. 1 

E|----0-0-------0-0---------0---------0---------------| 
B|--0-----0---0-----0---------0---------0-------------| 
G|------------------------5---------7-----------------| 
D|----------------------5---------7-------------------| 
A|----------------------------------------------------| 
E|----------------------------------------------------| 


Rhythm Fig. 2 

E|----------------------------------------------------| 
B|----------------------------------------------------| 
G|--9-9-----------------5-5--------7-7----------------| 
D|--9-9-----------------5-5--------7-7----------------| 
A|--7-7-----------------3-3--------5-5----------------| 
E|----------------------------------------------------| 


Rhythm Fig. 3 

E|----------------------------------------------------| 
B|----------------------------------------------------| 
G|--9-9-----------------5-5--------7~-----------------| 
D|--9-9-----------------5-5--------7~-----------------| 
A|--7-7-----------------3-3--------5~-7\--------------| 
E|----------------------------------------------------| 


Rhythm Fig. 4 

E|----------------------------------------------------| 
B|----------------------------------------------------| 
G|--9-------------------5-5--------7-7----------------| 
D|--9-------------------5-5--------7-7----------------| 
A|--7-------------------3-3--------5-5----------------| 
E|-----x--x--x--x--x--x------x--x-------x--x----------| 


Rhythm Fig. 5 

E|----------------------------------------------------| 
B|----------------------------------------------------| 
G|--9-9-----------------5-5--------7------------------| 
D|--9-9-----------------5-5--------7------------------| 
A|--7-7-----------------3-3--------5--7\--------------| 
E|-----x--x--x--x--x--x------x--x---------------------| 


Rhythm Fig. 6 

E|---------------------------------------------------| 
B|----------------------------------------5-----7----| 
G|--9----7------------7-9-----------------5-5---7-7--| 
D|--9----7----9-----9-7-9-----------------5-----7----| 
A|--7----5----9-----9-5-7-----------------3-----5----| 
E|------------7-----7--------------------------------| 


Rhythm Fig. 7 

E|----------------------------------------------------| 
B|----------------------------------------------------| 
G|--9----7--------------9----------11-----------------| 
D|--9----7----7----10-10-10---12-12--12---9--7-7--9---| 
A|--7----5----7----10---------12----------9--7-7--9---| 
E|------------5----8----------10----------7--5-5--7---| 


Rhythm Fig. 8a 

E|---------------0------------------------------------| 
B|-----------2-----2----------8-8-7-7---7-------------| 
G|--2------2---2-----2--------9-9-9-9-----9-----------| 
D|--2----2---------------2----9-9-9-9-9---------------| 
A|--0--------------------2----------------------------| 
E|-----------------------0----------------------------| 
                              <----2x-----> 

Rhythm Fig. 8b 

E|---------------0------------------------------------| 
B|-----------2-----2----------------------------------| 
G|--2------2---2-----2-----------7--------------------| 
D|--2----2---------------4-4-4-4-7-7/9--7-7--9--------| 
A|--0--------------------4-4-4-4-5-7/9--7-7--9--------| 
E|-----------------------2-2-2-2---5/7--5-5--7--------| 


Rhythm Fig. 9 

E|----------------------------------------------------| 
B|----------------------------------------------------| 
G|--9-9---11-12---5-5---7-7---9-9---11-12---5-7/9\7---| 
D|--9-9---11-12---5-5---7-7---9-9---11-12---5-7/9\7---| 
A|--7-7---9--10---3-3---5-5---7-7---9--10---3-5/7\5---| 
E|----------------------------------------------------| 


Solo. 

E|----------------------------------------------------| 
B|--------15b-15-15b-15-12-----15---------------------| 
G|-------------------------14b----14~--12h^14p^12\11--| 
D|----------------------------------------------------| 
A|----------------------------------------------------| 
E|-(/)0-----------------------------------------------| 


E|---------------------------------------15-15b-12----| 
B|-----------------------------------17b--------------| 
G|----------------------------------------------------| 
D|-14-12-14b---14h^16p^14\12--------------------------| 
A|---------------------------12-14--------------------| 
E|----------------------------------------------------| 


E|------------------14Tp-10-7--15Tp-10-7--17Tp-10-7---| 
B|----------------------------------------------------| 
G|-14-14b-14r-14~-------------------------------------| 
D|----------------------------------------------------| 
A|----------------------------------------------------| 
E|----------------------------------------------------| 
                    <- 8 x ->  <- 8 x ->  <- 8 x -> 

E|-19Tp-10-7---22b~-----------------------------------| 
B|----------------------------------------------------| 
G|----------------------------------------------------| 
D|----------------------------------------------------| 
A|----------------------------------------------------| 
E|----------------------------------------------------| 
   
	  

No existe una video leccione para esta canción

request
LosAcordes
Buscar
auto avanzar rasgueos aumentar disminuir cambiar color esconder acordes gráficos
losacordes exhibir acordes losacordes youTube video losacordes ocultar tabs losacordes ir hacia arriba losacordes