Jorge Aragão

Início > Jorge Arag... > acordes

Ave Maria Tablatura

Jorge Aragão

Dificultad:PrincipiantePrincipiante

tuner correct add songbook print version text version salvar en e-mail
acordesukuleletablaturabajobateríaarmónicaflautacavacopiano Guitar Pro
acordes

Ave Maria

	   
Qualquer duvida mande me um e-mail , e a musica ta no tom certinho tirei e ficou perfeito. 
Obs: (a musica e tocada toda ela com palhetadas rápidas e alternadas(cima para baixo) 
 
e|------------------|--2----------------------0----------------------- 
B|--0--1--3-----0---|-------------------0----------------------------- 
G| ----------2------|------------0---2-----2-----------------0--2---0- 
D|------------------|------2--4-------------------0---2--4------------ 
A|------------------|------------------------------------------------- 
E|------------------|------------------------------------------------- 
 
e|--5--------------------------|--------------2------ 
B|-----------0--2--0-----------|--0---1---3---------- 
G|-----0--2-----------2--------|--------------------- 
D|------------------------2--4-|------------------2-- 
A|-----------------------------|--------------------- 
E|-----------------------------|--------------------- 
 
e|-----------------|-------------0--2--4--2--0-------- 
B|----0--1---3-----|-------0--1---------------------0- 
G|-2---------------|-0--2------------------------2---- 
D|--------------0--|---------------------------------- 
A|-----------------|---------------------------------- 
E|-----------------|---------------------------------- 
 
e|----------2-----2----|-2--5----5--5------ 
B|-3--0--0-------------|------------------- 
G|-------------------0-|-------3--------2-- 
D|-------------2-------|------------------- 
A|---------------------|------------------- 
E|---------------------|------------------- 
 
e|--------------0-----------------7--4----|---4--5--9--5------------- 
B|-2--2---0-------0----1--1-------------3-|-5--------------3---0----- 
G|--------------------0------4--2---------|-----------------------2-- 
D|-----------4----------------------------|-------------------------- 
A|----------------------------------------|-------------------------- 
E|----------------------------------------|-------------------------- 
 
e|--2--4--2--0---|-7--4---------------------|--------0----|          
B|---------------|-------3---1--------------|-------------| 
G|---------------|---------------2----------|--0----------|          
D|---------------|------------------4---0---|-------------| 
A|---------------|--------------------------|-------------|          
E|---------------|--------------------------|-------------|          
	  

No existe una video leccione para esta canción

request
LosAcordes
Buscar
auto avanzar rasgueos aumentar disminuir cambiar color esconder acordes gráficos
losacordes exhibir acordes losacordes youTube video losacordes ocultar tabs losacordes ir hacia arriba losacordes