Janes Addiction

Início > Janes Addi... > acordes

Been Caught Stealing Tablatura

Janes Addiction

Dificultad:ExpertoExperto

tuner correct add songbook print version text version salvar en e-mail
acordesukuleletablaturabajobateríaarmónicaflautacavacopiano Guitar Pro
acordes

Been Caught Stealing

Áño: 1990 - Álbum: Ritual de lo Habitual

	  
Transcribed by: Greenie 12 
Email: [email protected] 
 
 
Tuning: (E,A,D,G,B,e) 
 
 
Intro: 
 
 
e-|--4------3----|----------------------------------|--------------------------|- 
B-|--3------2----|--6--6--5-6-5--6--6-6--5--6--6-5--|--8--8--x-8--8--8-8--x-8--|- 
G-|--3------2----|*-7--7--5-7-5--7--7-7--5--7--7-5--|--7--7--x-7--7--7-7--x-7--|- 
D-|--3------2----|*-5--5--5-5-5--5--5-5--5--5--5-5--|--5--5--x-5--5--5-5--x-5--|- 
A-|--------------|----------------------------------|--------------------------|- 
E-|--------------|----------------------------------|--------------------------|- 
 
                                                            (x2) 
e-|----------------------------------|--------------------------|- 
B-|--6--6--5-6-5--6--6-6--5--6--6-5--|--8--8--x-8--8--8-8--x-8--|- 
G-|--7--7--5-7-5--7--7-7--5--7--7-5--|--7--7--x-7--7--7-7--x-7-*|- 
D-|--5--5--5-5-5--5--5-5--5--5--5-5--|--5--5--x-5--5--5-5--x-5-*|- 
A-|----------------------------------|--------------------------|- 
E-|----------------------------------|--------------------------|- 
 
Verse: 
 
e-|----------------------------------|--------------------------|- 
B-|--6--6--5-6-5--6--6-6--5--6--6-5--|--8--8--x-8--8--8-8--x-8--|- 
G-|--7--7--5-7-5--7--7-7--5--7--7-5--|--7--7--x-7--7--7-7--x-7--|- 
D-|--5--5--5-5-5--5--5-5--5--5--5-5--|--5--5--x-5--5--5-5--x-5--|- 
A-|----------------------------------|--------------------------|- 
E-|----------------------------------|--------------------------|- 
 
e-|----------------------------------|--------------------------|- 
B-|--6--6--5-6-5--6--6-6--5--6--6-5--|--8--8--x-8--8--8-8--x-8--|- 
G-|--7--7--5-7-5--7--7-7--5--7--7-5--|--7--7--x-7--7--7-7--x-7--|- 
D-|--5--5--5-5-5--5--5-5--5--5--5-5--|--5--5--x-5--5--5-5--x-5--|- 
A-|----------------------------------|--------------------------|- 
E-|----------------------------------|--------------------------|- 
 
e-|--4--3------------|--------------------------|- 
B-|--3--2------------|--8--8--x-8--8--8-8--x-8--|- 
G-|--3--2------------|--7--7--x-7--7--7-7--x-7--|- 
D-|--3--2------------|--5--5--x-5--5--5-5--x-5--|- 
A-|------------------|--------------------------|- 
E-|------------------|--------------------------|- 
 
e-|----------------------------------|--------------------------|- 
B-|--6--6--5-6-5--6--6-6--5--6--6-5--|--8--8--x-8--8--8-8--x-8--|- 
G-|--7--7--5-7-5--7--7-7--5--7--7-5--|--7--7--x-7--7--7-7--x-7--|- 
D-|--5--5--5-5-5--5--5-5--5--5--5-5--|--5--5--x-5--5--5-5--x-5--|- 
A-|----------------------------------|--------------------------|- 
E-|----------------------------------|--------------------------|- 
 
Chorus: 
 
e-|--6----6--------|--6------------|--------------------|----------------------------|- 
B-|--5----5--------|--5------------|--3----5----3-------|-------x-8--8--8--8-8--x-5--|- 
G-|--5----5--------|--5------------|--3----5----3----2--|--4----x-7--7--7--7-7--x-5--|- 
D-|--5----5--------|--5------------|--3----5----3----3--|--5----x-5--5--5--5-5--x-5--|- 
A-|----------------|---------------|-----------------3--|--5-------------------------|- 
E-|----------------|---------------|-----------------1--|--3-------------------------|- 
 
e-|--------------------|--6----------------|--4------3--------|- 
B-|--5------------x-5--|--5----------------|--3------2--------|- 
G-|--5------------x-5--|--5----------------|--3------2--------|- 
D-|--5------------x-5--|--5----------------|--3------2--------|- 
A-|--------------------|-------------------|------------------|- 
E-|--------------------|-------------------|------------------|- 
 
End on a G chord 
 

	  

No existe una video leccione para esta canción

request
Aumentar uno tonoAumentar uno tono
Aumentar uno semi-tonoAumentar uno semi-tono
Disminuir uno semi-tonoDisminuir uno semi-tono
Disminuir uno tonoDisminuir uno semi-tono
LosAcordes
Buscar
auto avanzar rasgueos aumentar disminuir cambiar color esconder acordes gráficos
losacordes exhibir acordes losacordes youTube video losacordes ocultar tabs losacordes ir hacia arriba losacordes