Incubus

Início > Incubus > acordes

Pistola Tablatura

Incubus

Dificultad:Ningún gradoNingún grado

tuner correct add songbook print version text version salvar en e-mail
acordesukuleletablaturabajobateríaarmónicaflautacavacopiano Guitar Pro
acordes

Pistola

	  Alright, I just got the new Pistla Bootleg from Lollapalooza yesterday, and decided to tab it out last night, and here's what it looks like so far- 
 
Intro and Verses- 
-------------------------------------------------------- 
-------------------------------------------------------- 
-------------13----------13-------13-------------------- 
-------0-0---------------------------------------------- 
----11-------------------------------------------------- 
-12--------------10-10------11-11----------------------- 
 
then he adds this in hte middle of the 1st and 2nd, but not 3rd verse- 
 
----------------------------------------------------------- 
-14--------14-------14-------14-------14------------------- 
----14--------14-------14-------14-------14---------------- 
--------11-------11-------11-------11-------11------------- 
----------------------------------------------------------- 
----------------------------------------------------------- 
 
chorus goes like this- 
----------------------------------------------------------- 
----------------------------------------------------------- 
-5-5-5-5-5-5-5-5------------------5-5-5-5-5-5-5-5------------------ 
-5-5-5-5-5-5-5-5-7-7-7-7-7-7-7-7--5-5-5-5-5-5-5-5-7-7-7-7--2-2--2-- 
-3-3-3-3-3-3-3-3-7-7-7-7-7-7-7-7--3-3-3-3-3-3-3-3-7-7-7-7--2-2--2-- 
-----------------5-5-5-5-5-5-5-5------------------5-5-5-5--0-0--0-- 
 
then breakdown- 
----------------------------------------------------------- 
----------------------------------------------------------- 
-3-3--x---3--3--3-3--x--3--3---3--------------------------- 
-2-2--x---2--2--2-2--x--2--2---2--------------------------- 
----------------------------------------------------------- 
----------------------------------------------------------- 
 
interlude thingy- 
----------------------------------------------------------- 
----------------------------------------------------------- 
----------------------------------------------------------- 
----------------------------------------------------------- 
-2-2-2-0-------2-2------2-2-2-0-------2-0-----0-2---------- 
---------2-2-0------------------2-2-0-----2-0-------------- 
 
more- 
-2--2--2---2--2---2--2--2---2--2--------------------------- 
-0--0--0---0--0---0--0--0---0--0--------------------------- 
----------------------------------------------------------- 
----------------------------------------------------------- 
----------------------------------------------------------- 
----------------------------------------------------------- 
 
ending is chorus, and add 2 more of these- 
----------------------------------------------------------- 
----------------------------------------------------------- 
----------------------------------------------------------- 
-2-2--2---------------------------------------------------- 
-2-2--2---------------------------------------------------- 
-0-0--0---------------------------------------------------- 
 
This is of course a very rough sketch since it's a bootleg and i can't hear it that well, but u get the idea, find the rhythm. I'm gonna go do Megalomaniac now. 
 

	  

No existe una video leccione para esta canción

request
LosAcordes
Buscar
auto avanzar rasgueos aumentar disminuir cambiar color esconder acordes gráficos
losacordes exhibir acordes losacordes youTube video losacordes ocultar tabs losacordes ir hacia arriba losacordes