Incubus

Início > Incubus > acordes

Make Out Party Tablatura

Incubus

Dificultad:Ningún gradoNingún grado

renejunior

tuner correct add songbook print version text version salvar en e-mail
acordesukuleletablaturabajobateríaarmónicaflautacavacopiano Guitar Pro
acordes

Make Out Party

	   

Intro 
D|-----------------------------------------------------------| 
A|---4b-----------------6b------4b----------------6b---------| 
F|---4b-----------------6b------4b----------------6b---------| 
C|---4b--------2--------6b------4b--------2-------6b----2----| 
G|-2-------2-2-2-2-3/4--------2-------2-2-2-2-3/4-------2----| 
D|-0-------0-0---0-1/2--------0-------0-0---0-1/2-------0----| 

verse 1 and 2 
Rhythm Guitar 
         â??Girl I wanna kiss...on your lips, noâ? 
         â??Babe Iâ??ve got a weakness...â? 
D|-----------------------------------------------| 
A|---------4b----------------------6b------------| 
F|---------4b----------------------6b------------| 
C|-(2)-----4b------------2---------6b------------| 
G|-(2)--2----------2--2--2--2-3/4----------------| 
D|-(0)--0----------0--0-----0-1/2----------------| 
Lead/Synth 
D|--------------------------------------------21-| 
A|------------------------------------------19---| 
F|----------------------------------------21-----| 
C|-----------------------------------------------| 
G|-----------------------------------------------| 
D|-----------------------------------------------| 


Rhythm 
   â??Tips of your fingers...then at your pinky toeâ? 
   â??Honey spilt over...â? 
D|-------------------------------------------------| 
A|-(6)------4b--------------------6b---------------| 
F|-(6)------4b--------------------6b---------------| 
C|-(6)------4b----------2---------6b-------------2-| 
G|-----2----------2--2--2--2--3/4----------------2-| 
D|-----0----------0--0-----0--1/2----------------0-| 
Lead/Synth 
D|------------------------------------------21-----| 
A|----------------------------------------19-------| 
F|--------------------------------------21---------| 
C|-------------------------------------------------| 
G|-------------------------------------------------| 
D|-------------------------------------------------| 

Rhythm 
â??I know you know. Can you tell...cadence and tempoâ? 
â??Letâ??s get to work...â? 
D|--------------------------------------------------| 
A|---------------4b----------------------6b---------| 
F|---------------4b----------------------6b---------| 
C|-(2)-----------4b------------2---------6b---------| 
G|-(2)--------2----------2--2--2--2-3/4-------------| 
D|-(0)--------0----------0--0-----0-1/2-------------| 
Lead/Synth 
D|-----------------------------------------------21-| 
A|---------------------------------------------19---| 
F|-------------------------------------------21-----| 
C|--------------------------------------------------| 
G|--------------------------------------------------| 
D|--------------------------------------------------| 

Rhythm 
â??Lips are a trigger...connection we should be aiming forâ? 
â??Glistening and dangerous...â? 
D|-------------------------------------------------| 
A|-(6)------4b--------------------6b---------------| 
F|-(6)------4b--------------------6b---------------| 
C|-(6)------4b----------2---------6b-------------2-| 
G|-----2----------2--2--2--2--3/4----------------2-| 
D|-----0----------0--0-----0--1/2----------------0-| 
Lead/Synth 
D|------------------------------------------21-----| 
A|----------------------------------------19-------| 
F|--------------------------------------21---------| 
C|-------------------------------------------------| 
G|-------------------------------------------------| 
D|-------------------------------------------------| 

Rhythm 
â??Could we make up?      Could we make out?â? 
verse 2 skip to bridge 
D|--------------------------------------------------| 
A|---------------4b----------------------6b---------| 
F|---------------4b----------------------6b---------| 
C|-(2)-----------4b------------2---------6b---------| 
G|-(2)--------2----------2--2--2--2-3/4-------------| 
D|-(0)--------0----------0--0-----0-1/2-------------| 
Lead/Synth 
D|-----------------------------------------------21-| 
A|---------------------------------------------19---| 
F|-------------------------------------------21-----| 
C|--------------------------------------------------| 
G|--------------------------------------------------| 
D|--------------------------------------------------| 

Rhythm 
â??Could we make up?      Could we make out?â? 
D|-------------------------------------------------| 
A|-(6)------4b--------------------6b---------------| 
F|-(6)------4b--------------------6b---------------| 
C|-(6)------4b----------2---------6b-------------2-| 
G|-----2----------2--2--2--2--3/4----------------2-| 
D|-----0----------0--0-----0--1/2----------------0-| 
Lead/Synth 
D|------------------------------------------21-----| 
A|----------------------------------------19-------| 
F|--------------------------------------21---------| 
C|-------------------------------------------------| 
G|-------------------------------------------------| 
D|-------------------------------------------------| 


Bridge 
Rhythm 
â??I get high every...â? 
â??Oh, a deep sigh...â? 
D|--------------------------------------| 
A|--------------------------------------| 
F|--------------------------------------| 
C|--6-6--6-6-66/9-4--4-2---4-4/13-13-2--| 
G|--6-6--6-6-66/9-4--4-2---4-4/13-13-2--| 
D|--4-4--4-4-44/7-2--2-0---2-2/11-11-0--| 


Pre Verse 
   â??Ohh oh ohhhh...â? 
D|-----------------------------------------------------------| 
A|---4b-----------------6b------4b----------------6b---------| 
F|---4b-----------------6b------4b----------------6b---------| 
C|---4b--------2--------6b------4b--------2-------6b----2----| 
G|-2-------2-2-2-2-3/4--------2-------2-2-2-2-3/4-------2----| 
D|-0-------0-0---0-1/2--------0-------0-0---0-1/2-------0----| 


Solo 

Part 1 
Lead (Synth arranged for guitar) 
D|-/21~---19/21/19~--14/16---16/12/16/14-/19/21~-19-21-19/12--| 
A|------------------------------------------------------------| 
F|------------------------------------------------------------| 
C|------------------------------------------------------------| 
G|------------------------------------------------------------| 
D|------------------------------------------------------------| 
Rhythm 
D|------------------------------------------------------------| 
A|------------------------------------------------------------| 
F|------------------------------------------------------------| 
C|------------------------------------------------------------| 
G|-11-----------6----------------------------9-------------2--| 
D|-9------------4----------------------------7-------------0--| 

Part 2 
Lead (Synth arranged for guitar) 
D|-/21~---19/21/19/21~-19-16~--19-14~---/16-12^14^12^14^16-9~-| 
A|------------------------------------------------------------| 
F|------------------------------------------------------------| 
C|------------------------------------------------------------| 
G|------------------------------------------------------------| 
D|------------------------------------------------------------| 
Rhythm 
D|------------------------------------------------------------| 
A|------------------------------------------------------------| 
F|------------------------------------------------------------| 
C|------------------------------------------------------------| 
G|-11-----------------6-9-4-----/6-------2----/6----4---------| 
D|-9------------------4-7-2-----/4-------0----/4----2---------| 

Outro 
D|-----------------------------------------------------------| 
A|---4b-----------------6b------4b----------------6b---------| 
F|---4b-----------------6b------4b----------------6b---------| 
C|---4b--------2--------6b------4b--------2-------6b----2----| 
G|-2-------2-2-2-2-3/4--------2-------2-2-2-2-3/4-------2----| 
D|-0-------0-0---0-1/2--------0-------0-0---0-1/2-------0----| 
	  

No existe una video leccione para esta canción

request
LosAcordes
Buscar
auto avanzar rasgueos aumentar disminuir cambiar color esconder acordes gráficos
losacordes exhibir acordes losacordes youTube video losacordes ocultar tabs losacordes ir hacia arriba losacordes