Incubus

Início > Incubus > acordes

A Certain Shade Of Green Tablatura

Incubus

Dificultad:IntermedioIntermedio

tuner correct add songbook print version text version salvar en e-mail
acordesukuleletablaturabajobateriaarmónicaflautacavacopiano Guitar Pro
acordes

A Certain Shade Of Green

	  Chorus:

e|-----55-5-5-66-5-55-5-55-5-2-22-2-2-1-11-1-1------|
B|-----77-7-7-88-7-77-7-77-7-4-44-4-4-3-33-3-3------|
G|-----66-6-6-77-6-66-6-66-6-3-33-3-3-2-22-2-2------|
D|-----77-7-7-88-7-77-7-77-7-4-44-4-4-3-33-3-3------|
A|-(5)-55-5-5-66-5-55-5-55-5-2-22-2-2-1-11-1-1------|
E|----------------------------------------------0---|

Verse 1:

e|-5---5-555-444-3-3-3---3-3-22-22---5---555---5-555-444-3-3-3------------------|
B|-7---7-777-666-5-5-5---5-5-44-44---7---777---7-777-666-5-5-5---5---5---4---4--|
G|-6---6-666-555-4-4-4---4-4-33-33---6-6-666-6-6-666-555-4-4-4-----4-------3----|
D|-7---7---------5-5-5-5-5-5-44-44---7-7-777-7-7---------5-5-5-5-------4--------|
A|-5---5---------3-3-3---------------5-5-555-5-5--------------------------------|
E|---------------------------------0--------------------------------------------|



e|-5-5-555-5-555-444-3-33-3----33---222-5-5-555-555-555-444-3-333-333--3333-2222---|
G|-7-7-777-7-777-666-5-55-5----55---444-7-7-777-777-777-666-5-555-555--5555-4444---|
B|-6-6-666-6-666-555-4-44-4---------333-6-6-666-666-666-555-4-444-444--------------|
D|-7-7-----7---------5-55-5--5----4-----7-7-------7--------------------------------|
A|-5-5-----5---------3-33-3-------------5-5----------------------------------------|
E|-------------------------------------------------------------------------------0-|

Solo:

e|-------------10-9-8-6-6-8-6----4-3-2/3-1-1-3-1-1--1-3-1---1----2-4-2-2-1--------|
G|------------------------------------------------4------4---4-------------P4-3---|
B|--6/7P-6/7P---------------------------------------------------------------------|
D|--------------------------------------------------------------------------------|
A|--------------------------------------------------------------------------------|
E|--------------------------------------------------------------------------------|



e|-9--9--10-9-10-12-12-10-9-9-10-9-7-7-9/10-10-9-5-7-5-5-7/8-8-8-8-8-8-8-85----|
G|-10-10-----------------------------------------------------------------------|
B|-----------------------------------------------------------------------------|
D|-----------------------------------------------------------------------------|
A|-----------------------------------------------------------------------------|
E|---------------------------------------------------------------------------0-|

Verse 2:

e|-5-55-5-555-444-3-3---------------------------------5-55-555-444-3-3-33--33-2-22--|
G|-7-77-7-777-666-5-5---5---5---4---4----5---6----6/7-7-77-777-666-5-5-55--55-4-44--|
B|-6-66-6-666-555-4-4-----4-------3------------5--5/6-6-66-666-555-4-4-44--44-3-33--|
D|-7----7---------5-5-5-------4--------5---6-----------------------5----------------|
A|-5----5---------3------------------------------------------------3----------------|
E|----------------------------------------------------------------------------------|


e|-5-55-66-5-5-555-444-3-33-33-3-2-222--5-55-5-55-6-55-4-4-3-33-3-333-3333-2222---|
G|-7-77-88-7-7-777-666-5-55-55-5-4-444--7-77-7-77-8-77-6-6-5-55-5-555-5555-4444---|
B|-6-66----6-6-666-555-4-44-44-4-3-333--6-66-6-66-7-66-5-5-4-44-4-444-------------|
D|-7-77----------------5-55-------------7--------------6-6-5----------------------|
A|-5------------------------------------5-----------------------------------------|
E|--------------------------------------------------------------------------------|

Verse 3:

e|-5-5-555-5-55-6-555-4-4-3-33-33-3-22-2-2-11-1-1------5-5-555-5-55-6-555-4-4-3-33--|
G|-7-7-777-7-77-8-777-6-6-5-55-55-5-44-4-4-33-3-3------7-7-777-7-77-8-777-6-6-5-55--|
B|----------------------------------------------------------------------------------|
D|----------------------------------------------------------------------------------|
A|----------------------------------------------------------------------------------|
E|----------------------------------------------------------------------------------|

e|-33-3-22-2-2-11-1-1--|
G|-55-5-44-4-4-33-3-3--|
B|---------------------|
D|---------------------|
A|---------------------|
E|---------------------|

Outro:

e|-1------------6--6---|
G|-3---------8-----8---|
B|-2------7--------7---|
D|-3---------------8---|
A|-1---------------6---|
E|---------------------|
   strum lightly for both cords



Song sequence:

- Chorus
- Verse 1
- Chorus
- Solo
- Verse 2
- Chorus
- Verse 3
- Chorus
- Outro


Tabbed by Frank Skawinski - [email protected]

(Please e-mail me for corrections, errors, comments,
 etc., your comments can only better the tab!)

	  

No existe una video leccione para esta canción

request
LosAcordes
Buscar
auto avanzar rasgueos aumentar disminuir cambiar color esconder acordes gráficos
losacordes exhibir acordes losacordes youTube video losacordes ocultar tabs losacordes ir hacia arriba losacordes