Imagine Dragons

Início > Imagine Dr... > acordes

Sucker For Pain Tablatura

Imagine Dragons

Dificultad:Ningún gradoNingún grado

lucicamargo

tuner correct add songbook print version text version salvar en e-mail
acordesukuleletablaturabajobateríaarmónicaflautacavacopiano Guitar Pro
acordes

Sucker For Pain

	  
Am Dm F E 

 
E|----------8-7-5-------------------------8-7-5-------| 
B|--5-6-5---------5-------1-1-0---5-6-5-----------5---| 
G|-------------------2-2------------------------------| 
D|----------------------------------------------------| 
A|----------------------------------------------------| 
E|----------------------------------------------------| 
 
 
E|--5-5-5-4-4-4-5-------------------------------------| 
B|----------------------------------------------------| 
G|----------------------------------------------------| 
D|----------------------------------------------------| 
A|----------------------------------------------------| 
E|----------------------------------------------------|  
	  

No existe una video leccione para esta canción

request
Aumentar uno tonoAumentar uno tono
Aumentar uno semi-tonoAumentar uno semi-tono
Disminuir uno semi-tonoDisminuir uno semi-tono
Disminuir uno tonoDisminuir uno semi-tono
LosAcordes
Buscar
auto avanzar rasgueos aumentar disminuir cambiar color esconder acordes gráficos
losacordes exhibir acordes losacordes youTube video losacordes ocultar tabs losacordes ir hacia arriba losacordes