Flema

Início > Flema > acordes

Lección De Hipocresía Tablatura

Flema

Dificultad:Ningún gradoNingún grado

josep1

tuner correct add songbook print version text version salvar en e-mail
acordesukuleletablaturabajobateríaarmónicaflautacavacopiano Guitar Pro
acordes

Lección De Hipocresía

	  Flema 
Punteo de 'Leccion de Hipocresia' 


|---------------------------------------------| 
|---------------------------------------------| 
|---------------------------------------------| 
|-------4-4-5-5-7-7-7-7--0-5-5-5-4---4--4h5---| 
|-5-5-5----------------------------7-------5--| 
|---------------------------------------------| 


|--------------------------------------------| 
|--------------------------------------------| 
|--------------------------------------------| 
|---------------------5-5-5-4----------------| 
|-5-5-5-4---------------------7-5-5-5-5-5----| 
|---------7-5-5-5-5-5------------------------|
	  

No existe una video leccione para esta canción

request
LosAcordes
Buscar
auto avanzar rasgueos aumentar disminuir cambiar color esconder acordes gráficos
losacordes exhibir acordes losacordes youTube video losacordes ocultar tabs losacordes ir hacia arriba losacordes