Etta James

Início > Etta James > acordes

Tell Mama Tablatura

Etta James

Dificultad:Ningún gradoNingún grado

tarikike

tuner correct add songbook print version text version salvar en e-mail
acordesukuleletablaturabajobateríaarmónicaflautacavacopiano Guitar Pro
acordes

Tell Mama

Áño: 2007 - Álbum: Gold

	  
Intro 
e|---x-x--x-x---| 
B|---4-4--4-4---| 
G|---5-5--5-5---| 
D|---3-3--3-3---|  x4 
A|---x-x--x-x---| 
E|---x-x--x-x---| 

Verse 
e|-------------|---5--5--5--3--3--3--3-2-1--1--1--1--3--3--3---| 
B|-------------|---6--6--6--5--5--5--5-4-3--3--3--3--5--5--5---| 
G|-------------|---7--7--7--5--5--5--5-4-3--3--3--3--5--5--5---| 
D|-------------|---7--7--7--5--5--5--5-4-3--3--3--3--5--5--5---| 
A|------3--5---|---5--5--5--3--3--3--3-2-1--1--1--1--3--3--3---| 
E|---5---------|---x--x--x--x--x--x--x-x-x--x--x--x--x--x--x---| 
                                                     
e|-------------|---5--5--5--5--3--3--3-2-1--1--1--1--33333---| 
B|-------------|---6--6--6--6--5--5--5-4-3--3--3--3--55555---| 
G|-------------|---7--7--7--7--5--5--5-4-3--3--3--3--55555---| 
D|-------------|---7--7--7--7--5--5--5-4-3--3--3--3--55555---| 
A|------3--5---|---5--5--5--5--3--3--3-2-1--1--1--1--33333---| 
E|---5---------|---x--x--x--x--x--x--x-x-x--x--x--x--xxxxx---| 

Chorus 
e|---8---8--6--6---| 
B|--10--10--6--6---| 
G|--10--10--7--7---| 
D|--10--10--8--8---|  x9 
A|---8---8--8--8---| 
E|---x---x--6--6---| 

e|---8---8--6---| 
B|--10--10--6---| 
G|--10--10--7---| 
D|--10--10--8---| 
A|---8---8--8---| 
E|---x---x--6---| 

Back to verse 

*************************************** 
*                                     * 
*   x = dead note                     * 
*                                     * 
*************************************** 
	  

No existe una video leccione para esta canción

request
LosAcordes
Buscar
auto avanzar rasgueos aumentar disminuir cambiar color esconder acordes gráficos
losacordes exhibir acordes losacordes youTube video losacordes ocultar tabs losacordes ir hacia arriba losacordes